» » »

Chevelle, Glimpse Of The Con Tabs (ver.1)

Artists:  A B C D E F G H I J K L M N O P Q R S T U V W X Y Z # 

Glimpse Of The Con Tabs (ver.1)

Chevelle Tabs
 Rating:
4/5 (4 votes)
Glimpse Of The Con lessons Tabs too difficult? Try these video lessons and learn fast
                Glimpse of the Con
Chevelle
Hats off to the Bull
Bonus Track!!!

*NOTE: I take NO credit for this tab. All chords and patterns go to amart8733 from 
patterns, or listen to the song!

Have fun!

Dropped C (C G C F A D)

Intro
|---|
|---|
|-7-|
|-0-| Hard to tab, so watch the vid or listen to the song!
|---|
|---|

Verses
|-------------------|
|-------------------|
|-7---12----11----9-|
|-0----0-----0----0-| Same thing as Intro
|-------------------|
|-------------------|

Pre-Chorus
|---12---12---12---12---12---12-12-(9)-|<---Last time switch to (9)
|--------------------------------------|
|--------------------------------------|
|-9----9----9----0----0----0-----------|x2
|-9----9----9----0----0----0-----------|
|-9----9----9----0----0----0-----------|

Chorus
|-----------------------|
|-3-----12-----8-----10-|
|-2-----11-----7------9-|
|-0------9-----5------7-|
|-0------9-----5------7-|
|-0------9-----5------7-|

Solo/Bridge
|-----------|
|-----------|
|-7---6---9-|
|-0---0---0-| Same like the Intro, listen for the changes!
|-----------|
|-----------|

That's it! 

Order (And Lyrics!)

(Intro)
(Verse) x3
Hand over every
Last hope, to find
One mask for every
Halo, divine

(Pre-Chorus)
In ways known to others
The same hopes run together

(Verse) x2
So many eyes now
Way too many to count down
I fight to reach the surface
And then I'm passing out

(Pre-Chorus)
In ways known to others
The same hopes run together

(Chorus) x2
Don't weep, not for long
Lost savants
Between this fight and a wall
Peel those layers away
            
Submit corrections

comments powered by Disqus
↑ Back to top | Chevelle Tabs for Glimpse Of The Con. Lyrics for acoustic guitar and electric guitar. Tablatures and chords are parodies/interpretations of the original songs. You may use it for private study, scholarship, research or language learning purposes only