» » »

Chevelle, Fizgig Tabs (ver.1)

Artists:  A B C D E F G H I J K L M N O P Q R S T U V W X Y Z # 

Fizgig Tabs (ver.1)

Chevelle Tabs
Rating:
0/5 (0 votes)
Fizgig lessons Tabs too difficult? Try these video lessons and learn fast
                chevelle
Stray arrows
drop c

intro

----------------------|   X2
----------------------|
---17--------17----12-|
------16--------16----|
----------------------|
-0--------0-----------|

verse

-----------------------|  X16
-----------------------|
-----------------------|
-0-0-12-11-10--x-x-x-x-|
-0-0-12-11-10--x-x-x-x-|
-0-0-12-11-10--x-x-x-x-|

------------------------------------------|X2
------------------------------------------|
------------------------------------------|
-0-0-12-11-10--------0-0-12-11-10-x-x-x-x-|
-0-0-12-11-10--------0-0-12-11-10-x-x-x-x-|
-0-0-12-11-10-10-12--0-0-12-11-10-x-x-x-x-|

-----------------------|  X16
-----------------------|
-----------------------|
-0-0-12-11-10--x-x-x-x-|
-0-0-12-11-10--x-x-x-x-|
-0-0-12-11-10--x-x-x-x-|

chorus

------------------------------------------------------|
------------------------------------------------------|
------------------------------------------------------|
-3-5-7-10--3-2---------------------------3-5-2----3-2-|
-1-3-5-8---1-0---------------------------1-3-0--0-1-0-|
---------------0-00-9p0-00-9-00-10h12-12--------0-----|

preverse

-------------------------------------------------------------------|
-------------------------------------------------------------------|
-------------------------------------------------------------------|
-0-00---00---00----0---0---0-0-00---00---00---0---0----------------|
-0-00---00---00----0---0---0-0-00---00---00---0---0----------------|
-0-00-8-00-7-00-10-0-8-0-7-0-0-00-6-00-5-00-3-0-5-0-3--------------|

-----------------------------------------------------------------|
-----------------------------------------------------------------|
-----------------------------------------------------------------|
-0-00---00---00----0---0---0-0-00---00---00---0------------------|
-0-00---00---00----0---0---0-0-00---00---00---0------------------|
-0-00-8-00-7-00-10-0-8-0-7-0-0-00-6-00-5-00-3-0-5----------------|


verse

-----------------------|  X24 (slight variation in the last 4 times)
-----------------------|
-----------------------|
-0-0-12-11-10--x-x-x-x-|
-0-0-12-11-10--x-x-x-x-|
-0-0-12-11-10--x-x-x-x-|

chorus

------------------------------------------------------|
------------------------------------------------------|
------------------------------------------------------|
-3-5-7-10--3-2---------------------------3-5-2----3-2-|
-1-3-5-8---1-0---------------------------1-3-0--0-1-0-|
---------------0-00-9p0-00-9-00-10h12-12--------0-----|

interude

-------------------------------------------------------------------|
-------------------------------------------------------------------|
-------------------------------------------------------------------|
-0-00---00---00----0---0---0-0-00---00---00---0---0----------------|
-0-00---00---00----0---0---0-0-00---00---00---0---0----------------|
-0-00-8-00-7-00-10-0-8-0-7-0-0-00-6-00-5-00-3-0-5-0-3--------------|

-----------------------------------------------------------------|
-----------------------------------------------------------------|
-----------------------------------------------------------------|
-0-00---00---00----0---0---0-0-00---00---00---0------------------|
-0-00---00---00----0---0---0-0-00---00---00---0------------------|
-0-00-8-00-7-00-10-0-8-0-7-0-0-00-6-00-5-00-3-0-5----------------|

-----------------------------------------------------------------|
-----------------------------------------------------------------|
-----------------------------------------------------------------|
-0-00-8-00-7-00-10-0-8-0-7-0-0-00-6-00-5-00-3-0-5-0-3------------|
-0-00-8-00-7-00-10-0-8-0-7-0-0-00-6-00-5-00-3-0-5-0-3------------|
-0-00-8-00-7-00-10-0-8-0-7-0-0-00-6-00-5-00-3-0-5-0-3------------|

-----------------------------------------------------------------|
-----------------------------------------------------------------|
-----------------------------------------------------------------|
-0-00-8-00-7-00-10-0-8-0-7-0-0-00-6-00-5-00-3-0-5-0-3------------|
-0-00-8-00-7-00-10-0-8-0-7-0-0-00-6-00-5-00-3-0-5-0-3------------|
-0-00-8-00-7-00-10-0-8-0-7-0-0-00-6-00-5-00-3-0-5-0-3------------|


solo-ish

-----------------| X2
--------------20-|
-18-19--18-19----|
-----------------|
-----------------|
-----------------|

more interlude

---------------------------------| X4 last time do this instead of the second part-|
---------------------------------|-------------------------------------------------|
---------------------------------|-------------------------------------------------|
-6-6-7-0-0-0-5-0--6-6-7-0-0-0-0--|----6--6-5--5-3----------------------------------|
-6-6-7-0-0-0-5-0--6-6-7-0-0-0-0--|----6--6-5--5-3----------------------------------|
-6-6-7-0-0-0-5-0--6-6-7-0-0-0-0--|----6--6-5--5-3----------------------------------|

outro

-------------------------------------------------------------------|
-------------------------------------------------------------------|
-------------------------------------------------------------------|
-0-00---00---00----0---0---0-0-00---00---00---0---0----------------|
-0-00---00---00----0---0---0-0-00---00---00---0---0----------------|
-0-00-8-00-7-00-10-0-8-0-7-0-0-00-6-00-5-00-3-0-5-0-3--------------|

-----------------------------------------------------------------|
-----------------------------------------------------------------|
-----------------------------------------------------------------|
-0-00---00---00----0---0---0-0-00---00---00---0------------------|
-0-00---00---00----0---0---0-0-00---00---00---0------------------|
-0-00-8-00-7-00-10-0-8-0-7-0-0-00-6-00-5-00-3-0-5----------------|

-----------------------------------------------------------------|
-----------------------------------------------------------------|
-----------------------------------------------------------------|
-0-00-8-00-7-00-10-0-8-0-7-0-0-00-6-00-5-00-3-0-5-0-3------------|
-0-00-8-00-7-00-10-0-8-0-7-0-0-00-6-00-5-00-3-0-5-0-3------------|
-0-00-8-00-7-00-10-0-8-0-7-0-0-00-6-00-5-00-3-0-5-0-3------------|

-----------------------------------------------------------------|
-----------------------------------------------------------------|
-----------------------------------------------------------------|
-0-00-8-00-7-00-10-0-8-0-7-0-0-00-6-00-5-00-3-0-5-0-3------------|
-0-00-8-00-7-00-10-0-8-0-7-0-0-00-6-00-5-00-3-0-5-0-3------------|
-0-00-8-00-7-00-10-0-8-0-7-0-0-00-6-00-5-00-3-0-5-0-3------------|

------------------------------------------------------------------|
------------------------------------------------------------------|
------------------------------------------------------------------|
-x-x-x-x-5-3-x-x-x-x-5-3-x-x-x-x-2-3-2-0--------------------------|
-x-x-x-x-5-3-x-x-x-x-5-3-x-x-x-x-2-3-2-0--------------------------|
-x-x-x-x-5-3-x-x-x-x-5-3-x-x-x-x-2-3-2-0--------------------------|
            

comments powered by Disqus
↑ Back to top | Chevelle Tabs for Fizgig. Lyrics for acoustic guitar and electric guitar. Tablatures and chords are parodies/interpretations of the original songs. You may use it for private study, scholarship, research or language learning purposes only