» » »

Chevelle, Clones Tabs (ver.1)

Artists:  A B C D E F G H I J K L M N O P Q R S T U V W X Y Z # 

Clones Tabs (ver.1)

Chevelle Tabs
Rating:
5/5 (2 votes)
Hard to play? Try these video lessons and learn fast.
                Tuning: Drop c

distortion
|---------------------------------------------------------------------------------|
|---------------------------------------------------------------------------------|
|---------------------------------10-10-10-10-10-10-10-10-------------------------|
|-0-0-0-0-0-0-0-0-8-8-8-8-8-8-8-8-10-10-10-10-10-10-10-10-10-10-10-10-10-10-10-10-|
|-0-0-0-0-0-0-0-0-8-8-8-8-8-8-8-8-8--8--8--8--8--8--8--8--10-10-10-10-10-10-10-10-|
|-0-0-0-0-0-0-0-0-8-8-8-8-8-8-8-8-------------------------10-10-10-10-10-10-10-10-|



|-----------------------------------------------------------------|
|-----------------------------------------------------------------|
|-----------------------------------------------------------------|
|-0-0-0-0-0-0-0-0-8-8-8-8-8-8-8-8-3-3-3-3-3-3-3-3-5-5-5-5-5-5-5-5-|
|-0-0-0-0-0-0-0-0-8-8-8-8-8-8-8-8-3-3-3-3-3-3-3-3-5-5-5-5-5-5-5-5-|
|-0-0-0-0-0-0-0-0-8-8-8-8-8-8-8-8-3-3-3-3-3-3-3-3-5-5-5-5-5-5-5-5-|


not so distortion
|-----------------------------------------------------------------|
|-----------------------------------------------------------------|
|-----------------------------------------10-10-10-10-10-10-10-10-|
|-------------------------8-8-8-8-8-8-8-8-10-10-10-10-10-10-10-10-|
|-12-12-12-12-12-12-12-12-8-8-8-8-8-8-8-8-8--8--8--8--8--8--8--8--|
|-0--0--0--0--0--0--0--0--8-8-8-8-8-8-8-8-------------------------|



|--------------------------------------------------|
|--------------------------------------------------|
|--------------------------------------------------|
|-10-10-10-10-10-10-10-10--------------------------|
|-10-10-10-10-10-10-10-10-12-12-12-12-12-12-12-12--|
|-10-10-10-10-10-10-10-10-0--0--0--0--0--0--0--0---|



|-------------------------------------------------|
|-------------------------------------------------|
|-------------------------------------------------|
|-8-8-8-8-8-8-8-8-3-3-3-3-3-3-3-3-5-5-5-5-5-5-5-5-|
|-8-8-8-8-8-8-8-8-3-3-3-3-3-3-3-3-5-5-5-5-5-5-5-5-|
|-8-8-8-8-8-8-8-8-3-3-3-3-3-3-3-3-5-5-5-5-5-5-5-5-|


|-----------------------------------------------------------------------------|
|-----------------------------------------------------------------------------|
|-----------------------------10-10-10-10-10-10-10-10-------------------------|
|-------------8-8-8-8-8-8-8-8-10-10-10-10-10-10-10-10-10-10-10-10-10-10-10-10-|
|-12-13-12-10-8-8-8-8-8-8-8-8-8--8--8--8--8--8--8--8--10-10-10-10-10-10-10-10-|
|-0--0--0--0--8-8-8-8-8-8-8-8-------------------------10-10-10-10-10-10-10-10-|



|-------------------------------------------------------------------------|
|-------------------------------------------------------------------------|
|-------------------------------------------------------------------------|
|-------------------------8-8-8-8-8-8-8-8-3-3-3-3-3-3-3-3-5-5-5-5-5-5-5-5-|
|-12-12-12-12-12-12-12-12-8-8-8-8-8-8-8-8-3-3-3-3-3-3-3-3-5-5-5-5-5-5-5-5-|
|-0--0--0--0--0--0--0--0--8-8-8-8-8-8-8-8-3-3-3-3-3-3-3-3-5-5-5-5-5-5-5-5-|

distortion again

|---------------------------------------------------------------------------------|
|---------------------------------------------------------------------------------|
|---------------------------------10-10-10-10-10-10-10-10-------------------------|
|-0-0-0-0-0-0-0-0-8-8-8-8-8-8-8-8-10-10-10-10-10-10-10-10-10-10-10-10-10-10-10-10-|
|-0-0-0-0-0-0-0-0-8-8-8-8-8-8-8-8-8--8--8--8--8--8--8--8--10-10-10-10-10-10-10-10-|
|-0-0-0-0-0-0-0-0-8-8-8-8-8-8-8-8-------------------------10-10-10-10-10-10-10-10-|



|-----------------------------------------------------------------|
|-----------------------------------------------------------------|
|-----------------------------------------------------------------|
|-0-0-0-0-0-0-0-0-8-8-8-8-8-8-8-8-3-3-3-3-3-3-3-3-5-5-5-5-5-5-5-5-|
|-0-0-0-0-0-0-0-0-8-8-8-8-8-8-8-8-3-3-3-3-3-3-3-3-5-5-5-5-5-5-5-5-|
|-0-0-0-0-0-0-0-0-8-8-8-8-8-8-8-8-3-3-3-3-3-3-3-3-5-5-5-5-5-5-5-5-|


|---------------------------------------------------------------------------------|
|---------------------------------------------------------------------------------|
|---------------------------------10-10-10-10-10-10-10-10-------------------------|
|-0-0-0-0-0-0-0-0-8-8-8-8-8-8-8-8-10-10-10-10-10-10-10-10-10-10-10-10-10-10-10-10-|
|-0-0-0-0-0-0-0-0-8-8-8-8-8-8-8-8-8--8--8--8--8--8--8--8--10-10-10-10-10-10-10-10-|
|-0-0-0-0-0-0-0-0-8-8-8-8-8-8-8-8-------------------------10-10-10-10-10-10-10-10-|



|-----------------------------------------------------------------|
|-----------------------------------------------------------------|
|-----------------------------------------------------------------|
|-0-0-0-0-0-0-0-0-8-8-8-8-8-8-8-8-3-3-3-3-3-3-3-3-5-5-5-5-5-5-5-5-|
|-0-0-0-0-0-0-0-0-8-8-8-8-8-8-8-8-3-3-3-3-3-3-3-3-5-5-5-5-5-5-5-5-|
|-0-0-0-0-0-0-0-0-8-8-8-8-8-8-8-8-3-3-3-3-3-3-3-3-5-5-5-5-5-5-5-5-|

not so distortion
|-----------------------------------------------------------------|
|-----------------------------------------------------------------|
|-----------------------------------------10-10-10-10-10-10-10-10-|
|-------------------------8-8-8-8-8-8-8-8-10-10-10-10-10-10-10-10-|
|-12-12-12-12-12-12-12-12-8-8-8-8-8-8-8-8-8--8--8--8--8--8--8--8--|
|-0--0--0--0--0--0--0--0--8-8-8-8-8-8-8-8-------------------------|



|--------------------------------------------------|
|--------------------------------------------------|
|--------------------------------------------------|
|-10-10-10-10-10-10-10-10--------------------------|
|-10-10-10-10-10-10-10-10-12-12-12-12-12-12-12-12--|
|-10-10-10-10-10-10-10-10-0--0--0--0--0--0--0--0---|



|-------------------------------------------------|
|-------------------------------------------------|
|-------------------------------------------------|
|-8-8-8-8-8-8-8-8-3-3-3-3-3-3-3-3-5-5-5-5-5-5-5-5-|
|-8-8-8-8-8-8-8-8-3-3-3-3-3-3-3-3-5-5-5-5-5-5-5-5-|
|-8-8-8-8-8-8-8-8-3-3-3-3-3-3-3-3-5-5-5-5-5-5-5-5-|


|-----------------------------------------------------------------------------|
|-----------------------------------------------------------------------------|
|-----------------------------10-10-10-10-10-10-10-10-------------------------|
|-------------8-8-8-8-8-8-8-8-10-10-10-10-10-10-10-10-10-10-10-10-10-10-10-10-|
|-12-13-12-10-8-8-8-8-8-8-8-8-8--8--8--8--8--8--8--8--10-10-10-10-10-10-10-10-|
|-0--0--0--0--8-8-8-8-8-8-8-8-------------------------10-10-10-10-10-10-10-10-|



|-------------------------------------------------------------------------|
|-------------------------------------------------------------------------|
|-------------------------------------------------------------------------|
|-------------------------8-8-8-8-8-8-8-8-3-3-3-3-3-3-3-3-5-5-5-5-5-5-5-5-|
|-12-12-12-12-12-12-12-12-8-8-8-8-8-8-8-8-3-3-3-3-3-3-3-3-5-5-5-5-5-5-5-5-|
|-0--0--0--0--0--0--0--0--8-8-8-8-8-8-8-8-3-3-3-3-3-3-3-3-5-5-5-5-5-5-5-5-|

distortion again

|---------------------------------------------------------------------------------|
|---------------------------------------------------------------------------------|
|---------------------------------10-10-10-10-10-10-10-10-------------------------|
|-0-0-0-0-0-0-0-0-8-8-8-8-8-8-8-8-10-10-10-10-10-10-10-10-10-10-10-10-10-10-10-10-|
|-0-0-0-0-0-0-0-0-8-8-8-8-8-8-8-8-8--8--8--8--8--8--8--8--10-10-10-10-10-10-10-10-|
|-0-0-0-0-0-0-0-0-8-8-8-8-8-8-8-8-------------------------10-10-10-10-10-10-10-10-|



|-----------------------------------------------------------------|
|-----------------------------------------------------------------|
|-----------------------------------------------------------------|
|-0-0-0-0-0-0-0-0-8-8-8-8-8-8-8-8-3-3-3-3-3-3-3-3-5-5-5-5-5-5-5-5-|
|-0-0-0-0-0-0-0-0-8-8-8-8-8-8-8-8-3-3-3-3-3-3-3-3-5-5-5-5-5-5-5-5-|
|-0-0-0-0-0-0-0-0-8-8-8-8-8-8-8-8-3-3-3-3-3-3-3-3-5-5-5-5-5-5-5-5-|


|---------------------------------------------------------------------------------|
|---------------------------------------------------------------------------------|
|---------------------------------10-10-10-10-10-10-10-10-------------------------|
|-0-0-0-0-0-0-0-0-8-8-8-8-8-8-8-8-10-10-10-10-10-10-10-10-10-10-10-10-10-10-10-10-|
|-0-0-0-0-0-0-0-0-8-8-8-8-8-8-8-8-8--8--8--8--8--8--8--8--10-10-10-10-10-10-10-10-|
|-0-0-0-0-0-0-0-0-8-8-8-8-8-8-8-8-------------------------10-10-10-10-10-10-10-10-|



|-----------------------------------------------------------------|
|-----------------------------------------------------------------|
|-----------------------------------------------------------------|
|-0-0-0-0-0-0-0-0-8-8-8-8-8-8-8-8-3-3-3-3-3-3-3-3-5-5-5-5-5-5-5-5-|
|-0-0-0-0-0-0-0-0-8-8-8-8-8-8-8-8-3-3-3-3-3-3-3-3-5-5-5-5-5-5-5-5-|
|-0-0-0-0-0-0-0-0-8-8-8-8-8-8-8-8-3-3-3-3-3-3-3-3-5-5-5-5-5-5-5-5-|

interlude/solo build up


|-------------------------------------------------------------|
|-------------------------------------------------------------|
|-------------------------------------------7-7-7-7-7-7-7-7-7-|
|-8-8-8-8-8-8-8-8-8-10-10-10-10-10-10-10-10-7-7-7-7-7-7-7-7-7-|
|-8-8-8-8-8-8-8-8-8-10-10-10-10-10-10-10-10-5-5-5-5-5-5-5-5-5-|
|-8-8-8-8-8-8-8-8-8-10-10-10-10-10-10-10-10-------------------|



|----------------------------------------------------------------------------|
|----------------------------------------------------------------------------|
|----------------------------------------------------------------------------|
|-7-7-7-7-7-7-7-7-8-8-8-8-8-8-8-8-10-10-10-10-10-10-10-10-5-5-5-5-5-5-5-5--5-|
|-7-7-7-7-7-7-7-7-8-8-8-8-8-8-8-8-10-10-10-10-10-10-10-10-5-5-5-5-5-5-5-5--5-|
|-7-7-7-7-7-7-7-7-8-8-8-8-8-8-8-8-10-10-10-10-10-10-10-10-5-5-5-5-5-5-5-5--5-|

solo

|--------------------------------------------------|
|-10-10-10-10-10-10-10-10-10-10-10-10-10-10-10-10--|
|-7--7--7--7--7--7--7--7--7--7--7--7--7--7--7--7---|
|--------------------------------------------------|
|--------------------------------------------------|
|--------------------------------------------------|


|--------------------------------------------------|
|--------------------------------------------------|
|-9--9--9--9--9--9--9--9--12-12-12-12-12-12-12-12--|
|-10-10-10-10-10-10-10-10-10-10-10-10-10-10-10-10--|
|--------------------------------------------------|
|--------------------------------------------------|

|--------------------------------------------------|
|--------------------------------------------------|
|-10-10-10-10-10-10-10-10-10-10-10-10-10-10-10-10--|
|-7--7--7--7--7--7--7--7--7--7--7--7--7--7--7--7---|
|--------------------------------------------------|
|--------------------------------------------------|


|----------------------------------|
|----------------------------------|
|----------------------------------|
|-10-10-10-10-10-10-10-10-9-9-9\/--|
|-8--8--8--8--8--8--8--8--7-7-7\/--|
|----------------------------------|

|--------------------------------------------------|
|-10-10-10-10-10-10-10-10-10-10-10-10-10-10-10-10--|
|-7--7--7--7--7--7--7--7--7--7--7--7--7--7--7--7---|
|--------------------------------------------------|
|--------------------------------------------------|
|--------------------------------------------------|


|--------------------------------------------------|
|--------------------------------------------------|
|-9--9--9--9--9--9--9--9--12-12-12-12-12-12-12-12--|
|-10-10-10-10-10-10-10-10-10-10-10-10-10-10-10-10--|
|--------------------------------------------------|
|--------------------------------------------------|

|--------------------------------------------------|
|--------------------------------------------------|
|-10-10-10-10-10-10-10-10-10-10-10-10-10-10-10-10--|
|-7--7--7--7--7--7--7--7--7--7--7--7--7--7--7--7---|
|--------------------------------------------------|
|--------------------------------------------------|


|----------------------------------|
|----------------------------------|
|----------------------------------|
|-10-10-10-10-10-10-10-10-9-9-9\/--|
|-8--8--8--8--8--8--8--8--7-7-7\/--|
|----------------------------------|

prechorus

|-----------------------------------------------------------------|
|-----------------------------------------------------------------|
|-----------------------------------------10-10-10-10-10-10-10-10-|
|-------------------------8-8-8-8-8-8-8-8-10-10-10-10-10-10-10-10-|
|-12-12-12-12-12-12-12-12-8-8-8-8-8-8-8-8-8--8--8--8--8--8--8--8--|
|-0--0--0--0--0--0--0--0--8-8-8-8-8-8-8-8-------------------------|



|--------------------------------------------------|
|--------------------------------------------------|
|--------------------------------------------------|
|-10-10-10-10-10-10-10-10--------------------------|
|-10-10-10-10-10-10-10-10-12-12-12-12-12-12-12-12--|
|-10-10-10-10-10-10-10-10-0--0--0--0--0--0--0--0---|



|-------------------------------------------------|
|-------------------------------------------------|
|-------------------------------------------------|
|-8-8-8-8-8-8-8-8-3-3-3-3-3-3-3-3-5-5-5-5-5-5-5-5-|
|-8-8-8-8-8-8-8-8-3-3-3-3-3-3-3-3-5-5-5-5-5-5-5-5-|
|-8-8-8-8-8-8-8-8-3-3-3-3-3-3-3-3-5-5-5-5-5-5-5-5-|

|-----------------------------------------------------------------|
|-----------------------------------------------------------------|
|-----------------------------------------10-10-10-10-10-10-10-10-|
|-------------------------8-8-8-8-8-8-8-8-10-10-10-10-10-10-10-10-|
|-12-12-12-12-12-12-12-12-8-8-8-8-8-8-8-8-8--8--8--8--8--8--8--8--|
|-0--0--0--0--0--0--0--0--8-8-8-8-8-8-8-8-------------------------|



|--------------------------------------------------|
|--------------------------------------------------|
|--------------------------------------------------|
|-10-10-10-10-10-10-10-10--------------------------|
|-10-10-10-10-10-10-10-10-12-12-12-12-12-12-12-12--|
|-10-10-10-10-10-10-10-10-0--0--0--0--0--0--0--0---|



|-------------------------------------------------|
|-------------------------------------------------|
|-------------------------------------------------|
|-8-8-8-8-8-8-8-8-3-3-3-3-3-3-3-3-5-5-5-5-5-5-5-5-|
|-8-8-8-8-8-8-8-8-3-3-3-3-3-3-3-3-5-5-5-5-5-5-5-5-|
|-8-8-8-8-8-8-8-8-3-3-3-3-3-3-3-3-5-5-5-5-5-5-5-5-|

chorus

|---------------------------------------------------------------------------------|
|---------------------------------------------------------------------------------|
|---------------------------------10-10-10-10-10-10-10-10-------------------------|
|-0-0-0-0-0-0-0-0-8-8-8-8-8-8-8-8-10-10-10-10-10-10-10-10-10-10-10-10-10-10-10-10-|
|-0-0-0-0-0-0-0-0-8-8-8-8-8-8-8-8-8--8--8--8--8--8--8--8--10-10-10-10-10-10-10-10-|
|-0-0-0-0-0-0-0-0-8-8-8-8-8-8-8-8-------------------------10-10-10-10-10-10-10-10-|



|-----------------------------------------------------------------|
|-----------------------------------------------------------------|
|-----------------------------------------------------------------|
|-0-0-0-0-0-0-0-0-8-8-8-8-8-8-8-8-3-3-3-3-3-3-3-3-5-5-5-5-5-5-5-5-|
|-0-0-0-0-0-0-0-0-8-8-8-8-8-8-8-8-3-3-3-3-3-3-3-3-5-5-5-5-5-5-5-5-|
|-0-0-0-0-0-0-0-0-8-8-8-8-8-8-8-8-3-3-3-3-3-3-3-3-5-5-5-5-5-5-5-5-|


|---------------------------------------------------------------------------------|
|---------------------------------------------------------------------------------|
|---------------------------------10-10-10-10-10-10-10-10-------------------------|
|-0-0-0-0-0-0-0-0-8-8-8-8-8-8-8-8-10-10-10-10-10-10-10-10-10-10-10-10-10-10-10-10-|
|-0-0-0-0-0-0-0-0-8-8-8-8-8-8-8-8-8--8--8--8--8--8--8--8--10-10-10-10-10-10-10-10-|
|-0-0-0-0-0-0-0-0-8-8-8-8-8-8-8-8-------------------------10-10-10-10-10-10-10-10-|



|-----------------------------------------------------------------|
|-----------------------------------------------------------------|
|-----------------------------------------------------------------|
|-0-0-0-0-0-0-0-0-8-8-8-8-8-8-8-8-3-3-3-3-3-3-3-3-5-5-5-5-5-5-5-5-|
|-0-0-0-0-0-0-0-0-8-8-8-8-8-8-8-8-3-3-3-3-3-3-3-3-5-5-5-5-5-5-5-5-|
|-0-0-0-0-0-0-0-0-8-8-8-8-8-8-8-8-3-3-3-3-3-3-3-3-5-5-5-5-5-5-5-5-|


|---------------------------------------------------------------------------------|
|---------------------------------------------------------------------------------|
|---------------------------------10-10-10-10-10-10-10-10-------------------------|
|-0-0-0-0-0-0-0-0-8-8-8-8-8-8-8-8-10-10-10-10-10-10-10-10-10-10-10-10-10-10-10-10-|
|-0-0-0-0-0-0-0-0-8-8-8-8-8-8-8-8-8--8--8--8--8--8--8--8--10-10-10-10-10-10-10-10-|
|-0-0-0-0-0-0-0-0-8-8-8-8-8-8-8-8-------------------------10-10-10-10-10-10-10-10-|



|-----------------------------------------------------------------|
|-----------------------------------------------------------------|
|-----------------------------------------------------------------|
|-0-0-0-0-0-0-0-0-8-8-8-8-8-8-8-8-3-3-3-3-3-3-3-3-5-5-5-5-5-5-5-5-|
|-0-0-0-0-0-0-0-0-8-8-8-8-8-8-8-8-3-3-3-3-3-3-3-3-5-5-5-5-5-5-5-5-|
|-0-0-0-0-0-0-0-0-8-8-8-8-8-8-8-8-3-3-3-3-3-3-3-3-5-5-5-5-5-5-5-5-|


|---------------------------------------------------------------------------------|
|---------------------------------------------------------------------------------|
|---------------------------------10-10-10-10-10-10-10-10-------------------------|
|-0-0-0-0-0-0-0-0-8-8-8-8-8-8-8-8-10-10-10-10-10-10-10-10-10-10-10-10-10-10-10-10-|
|-0-0-0-0-0-0-0-0-8-8-8-8-8-8-8-8-8--8--8--8--8--8--8--8--10-10-10-10-10-10-10-10-|
|-0-0-0-0-0-0-0-0-8-8-8-8-8-8-8-8-------------------------10-10-10-10-10-10-10-10-|



|-----------------------------------------------------------------|
|-----------------------------------------------------------------|
|-----------------------------------------------------------------|
|-0-0-0-0-0-0-0-0-8-8-8-8-8-8-8-8-3-3-3-3-3-3-3-3-5-5-5-5-5-5-5-5-|
|-0-0-0-0-0-0-0-0-8-8-8-8-8-8-8-8-3-3-3-3-3-3-3-3-5-5-5-5-5-5-5-5-|
|-0-0-0-0-0-0-0-0-8-8-8-8-8-8-8-8-3-3-3-3-3-3-3-3-5-5-5-5-5-5-5-5-|

outro

|-----------------------------------------------------------------|
|-----------------------------------------------------------------|
|-----------------------------------------10-10-10-10-10-10-10-10-|
|-------------------------8-8-8-8-8-8-8-8-10-10-10-10-10-10-10-10-|
|-12-12-12-12-12-12-12-12-8-8-8-8-8-8-8-8-8--8--8--8--8--8--8--8--|
|-0--0--0--0--0--0--0--0--8-8-8-8-8-8-8-8-------------------------|


|--------------------------------------------------|
|--------------------------------------------------|
|--------------------------------------------------|
|-10-10-10-10-10-10-10-10--------------------------|
|-10-10-10-10-10-10-10-10-12-12-12-12-12-12-12-12--|
|-10-10-10-10-10-10-10-10-0--0--0--0--0--0--0--0---|



|-------------------------------------------|
|-------------------------------------------|
|-------------------------------------------|
|-8-8-8-8-8-8-8-8-3-3-3-3-3-3-3-3-5-5-5-5-5-|
|-8-8-8-8-8-8-8-8-3-3-3-3-3-3-3-3-5-5-5-5-5-|
|-8-8-8-8-8-8-8-8-3-3-3-3-3-3-3-3-5-5-5-5-5-|
            

comments powered by Disqus
↑ Back to top | Chevelle Tabs for Clones. Lyrics for acoustic guitar and electric guitar. Tablatures and chords are parodies/interpretations of the original songs. You may use it for private study, scholarship, research or language learning purposes only