» » »

Chevelle, Anticipation Tabs (ver.1)

Artists:  A B C D E F G H I J K L M N O P Q R S T U V W X Y Z # 

Anticipation Tabs (ver.1)

Chevelle Tabs
Rating:
5/5 (1 vote)
Anticipation lessons Tabs too difficult? Try these video lessons and learn fast
                CheVelle

tuning: drop d

intro
play this 4 times
e-----------------------------------------------------------------------|
b-----------------------------------------------------------------------|
g-----------------------------------------------------------------------|
d-----------------------------------------------------------------------|
a-7/8-8-8\7-7-7/8-8-8\7-7-7/8-8-8\7-7-7/8-8-8\7-7-7/8-8-8\7-7-7/8-8-8\7-|
D-7/8-8-8\7-7-7/8-8-8\7-7-7/8-8-8\7-7-7/8-8-8\7-7-7/8-8-8\7-7-7/8-8-8\7-|

e-------]
b-------]
g-------]
d-------]
a-4-4-4-]
E-4-4-4-]

verse

e--------------------------------------------------------------------------|
b--------------------------------------------------------------------------|
g--------------------------------------------------------------------------|
d--------------------------------------------------------------------------|
a-8-4-8-4-8-4-8-4-4-4------------------------------------------------------|
D-8-4-8-4-8-4-8-4-4-4-88888888888888-444-88888888888888-444-88888888888888-|

e------------------------]
b------------------------]
g------------------------]
d------------------------]
a------------------------]
D-444-88888888888888-444-]

chorus

e---------------------]---|
b---------------x4----]---|
g---------------------]---|
d-888888888888888-444-]-4-|
a-888888888888888-444-]-4-|
D-888888888888888-444-]-4-| then a pick scr*pe

then intro again
then verse again
then chorus

solo

e-----------]----------------------------------------------------------|
b--x30--x20-]------------14--14--14--14-----------------14-14-14-14h16-|
g-13---11---]131313131313--13--13--13---1111111111111111-11-11---------|
d-----------]----------------------------------------------------------|
a-----------]----------------------------------------------------------|
D-----------]----------------------------------------------------------|

e------------------------------]------]
b------------------------------]14\16-]
g-1010101010101010101010101010-]------]
d------------------------------]------]repeat from 1st to second bar but
a------------------------------]------]carry out tens longer
D------------------------------]------]

chorus again

then outro

e-------------------------------------]---]
b-----------------x4------------------]---]
g-------------------------------------]---]
d-8-x-x-x-x--8-x-x-x-x--8-x-x-x-x-444-]-4-]
a-8-x-x-x-x--8-x-x-x-x--8-x-x-x-x-444-]-4-]
D-8-x-x-x-x--8-x-x-x-x--8-x-x-x-x-444-]-4-]

e-----------------------------------]
b-----------------------------------]
g-----------------------------------]
d-4-x-x-x-x--4-x-x-x-x--4-x-x-x-x-4-]
a-4-x-x-x-x--4-x-x-x-x--4-x-x-x-x-4-]
D-4-x-x-x-x--4-x-x-x-x--4-x-x-x-x-4-]
            

comments powered by Disqus
↑ Back to top | Chevelle Tabs for Anticipation. Lyrics for acoustic guitar and electric guitar. Tablatures and chords are parodies/interpretations of the original songs. You may use it for private study, scholarship, research or language learning purposes only