» » »

Reefer Song Tabs (ver.1)

Artists:  A B C D E F G H I J K L M N O P Q R S T U V W X Y Z # 

Reefer Song Tabs (ver.1)

Cheech And Chong
Rating:
0/5 (0 votes)

Hard to play? Try these video lessons and learn fast.
                X=mute

--5-5-x-2-2-x-7-7-x-------7-7-x-------5---5
--3-3-x-2-2-x-5-5-x-5-5-x-5-5-x-5-5-x-3-5-3
--------0-0-x-------3-3-x-----x-3-3-x------


--5-5-x-2-2-x-7-7-x-------7-7-x-------5---5
--3-3-x-2-2-x-5-5-x-5-5-x-5-5-x-5-5-x-3-5-3
--------0-0-x-------3-3-x-----x-3-3-x------

--5-5-x-2-2-x-7-7-x-------7-7-x-------5---5
--3-3-x-2-2-x-5-5-x-5-5-x-5-5-x-5-5-x-3-5-3
--------0-0-x-------3-3-x-----x-3-3-x------


--5-5-x-2-2-x-7-7-x-------7-7-x-------5---5
--3-3-x-2-2-x-5-5-x-5-5-x-5-5-x-5-5-x-3-5-3
--------0-0-x-------3-3-x-----x-3-3-x------

And so on.enjoy!
            
Hard to play? Try these video lessons and learn fast. | Correct




comments powered by Disqus
↑ Back to top | Tablatures and chords are parodies/interpretations of the original songs. You may use it for private study, scholarship, research or language learning purposes only