» » »

Cheap Trick, If You Need Me Tabs (ver.1)

Artists:  A B C D E F G H I J K L M N O P Q R S T U V W X Y Z # 

If You Need Me Tabs (ver.1)

Cheap Trick Tabs
Rating:
0/5 (0 votes)
If You Need Me lessons Tabs too difficult? Try these video lessons and learn fast
                #------------------------------------------------------------------------------##

key:  B
tuning:  standard E A D G

intro

D-----------------------------------------------------2-2-1---|
A-2-2-2-2-2-2-2-2-2-2-2-2-2-2-2-2---------------------------4-|
E---------------------------------0-0-0-0-0-0-0-0-0-0---------|


first verse

D-----------------------------------------------------2-2-1---|
A-2-2-2-2-2-2-2-2-2-2-2-2-2-2-2-2---------------------------4-|
E---------------------------------0-0-0-0-0-0-0-0-0-0---------|
  Girl it's all right if it's one of those nights and you need me
  Swallow your pride there's nothing to hide Do you need me?
  Such a long long time I've been waiting for a sign Say you need me

A-2-2-2-2-2-2-2-2-2-2-2-2-2-2-2-2--------------------------------|
E---------------------------------0-0-0-0-0-0-0-0-0-0------------|
  I've been dreaming of the day when I hear you say Say you need me

prechorus

A----------------------------------------------------|
E--0-2-2-2-2-2--4-4-4-4-4--2-2-2-2-2-0-0-0-0-0-0-----|
   I believe in you you believe in me but I can't feel it in my heart

A------------------------------7-7-6-6-6-|
E--2-2-2-2-2--4-4-4-3-2-1-0-0------------|
  So what's wrong with you what's the matter with me And how come we're
  so far apart

chorus

G-------------------------------------------------------------------3-5--|
D-------------------------------------------------------------3-4-6------|
A--4-4-4-4-4-----1-1-1-1-1------------------------4-4-4-4-4-6------------|
----------------------------2-2-2-2-2--4-4-4-4-4-------------------------|
  I can stand a little hurt and I stand stand a lot of pain
  We can work it out all right if you need me


second verse

Can we be serious can you and I keep a secret?
Hold it inside between you and I Can you keep it?
Been thinking of a way just to get you to say say you need me
Such a long long time I've been waiting for a sign Say you need me

prechorus

repeat chorus to fade

            -I'm here, I'm queer, I play 5-string bass
            

comments powered by Disqus
↑ Back to top | Cheap Trick Tabs for If You Need Me. Lyrics for acoustic guitar and electric guitar. Tablatures and chords are parodies/interpretations of the original songs. You may use it for private study, scholarship, research or language learning purposes only