» » »

In Your Hands Bass tabs (ver.1)

Artists:  A B C D E F G H I J K L M N O P Q R S T U V W X Y Z # 

In Your Hands Bass tabs (ver.1)

Charlie Winston
Rating:
0/5 (0 votes)

Hard to play? Try these video lessons and learn fast.
                -------------------------------------------------------------------------------
			     In Your Hands CHARLIE WINSTON
-------------------------------------------------------------------------------


Tuning:EADG
A#  Main Riff
G|----------|----------|----------|-----------|----------|-----------|
D|---8----8-|--68----8-|---8----8-|--68-----8-|---8----8-|--68-----8-|
A|-x8-x--9--|-x--x--9--|-x8-x--9--|-x--x---9--|-x8-x--9--|-x--x---9--|
E|6----66---|6----66---|6----66---|6----6x6---|6----66---|6----6x6---|
G|-----------||
D|--68-----8-|| repeat
A|-x--x---9--||
E|6----6x6---||
F#
G|-----------|
D|---4-44-33-|
A|-x4--------|
E|2---2------|
C#
G|---6----6--|
D|--6----6---|
A|4x--x44----|
E|-----------|
D#
G|---8----8--|
D|--8----8---|
A|6x--x66----|
E|-----------|




| /  slide up
| \  slide down
| h  hammer-on
| p  pull-off
| ~  vibrato
| +  harmonic
| x  Mute note
===============================================================================
            
Hard to play? Try these video lessons and learn fast. | Correct




comments powered by Disqus
↑ Back to top | Tablatures and chords are parodies/interpretations of the original songs. You may use it for private study, scholarship, research or language learning purposes only