» » »

Celldweller, Afraid This Time Tabs (ver.2)

Artists:  A B C D E F G H I J K L M N O P Q R S T U V W X Y Z # 

Afraid This Time Tabs (ver.2)

Celldweller Tabs
Rating:
0/5 (0 votes)
Hard to play? Try these video lessons and learn fast.
                -------------------------------------------------------------------------------
                        AFRAID THIS TIME - Celldweller
-------------------------------------------------------------------------------

Tuning: Drop C (G-C-G-F-A-d).


~~Intro (Acoustic Guitar)~~
                               1st   2nd
d|---------------------------|-----|--0--|
A|---------------------------|-----|--0--|
F|-----7------9-\------2---0-|--2~-|--2--|
C|--5----/7----------0---2---|-----|--2--| X2
G|----------0----------------|-----|--0--|
C|---------------------------|-----|-----|

~~Verse (Piano)~~

d|-----------------------------------------------|
A|-----------------------------------------------|
F|-----------------------------------------------|
C|--10---9--------10---9--------10---9-------5---|  X5
G|--10---9--------10---9--------10---9-------5---|
C|--10---9--------10---9--------10---9-------5---|

~~Pre-Chorus (Acoustic Guitar)~~

d|------------------------------|
A|------------------------------|
F|------------------------------|
C|--3-----0-----7-X-5-X-3-------|
G|--3-----0-----7-X-5-X-3-------|
C|--3-----0-----7-X-5-X-3-------|

~~Chorus (Acoustic Guitar)~~
[Optional Distorted Electric Guitar Replacing Synth]

d|-----------------------------------------------------------|
A|-----------------------------------------------------------|
F|-----------------------------------------------------------|
C|---5--5-5--5-7--7--7-7-7-7--0--0-0--0-2--2--2-10-10-10-10--|  X5
G|---5--5-5--5-7--7--7-7-7-7--0--0-0--0-2--2--2-10-10-10-10--|
C|---5--5-5--5-7--7--7-7-7-7--0--0-0--0-2--2--2-10-10-10-10--|

~~Verse (Piano)~~

d|-----------------------------------------------|
A|-----------------------------------------------|
F|-----------------------------------------------|
C|--10---9--------10---9--------10---9-------5---|  X2
G|--10---9--------10---9--------10---9-------5---|
C|--10---9--------10---9--------10---9-------5---|

~~Chorus (Acoustic Guitar)~~
[Optional Distorted Electric Guitar Replacing Synth]
[ONLY Acoustic Guitar on 9th and 10th Repeat, Synth Returns on 11th]

d|-----------------------------------------------------------|
A|-----------------------------------------------------------|
F|-----------------------------------------------------------|
C|---5--5-5--5-7--7--7-7-7-7--0--0-0--0-2--2--2-10-10-10-10--|  X18
G|---5--5-5--5-7--7--7-7-7-7--0--0-0--0-2--2--2-10-10-10-10--|
C|---5--5-5--5-7--7--7-7-7-7--0--0-0--0-2--2--2-10-10-10-10--|

~~Outro (Distorted Electric AND Acoustic Guitars)~~

d|----------------------------------------------------------|       
A|----------------------------------------------------------|       
F|----------------------------------------------------------|       
C|--2-0-2-2---2-0-2-2---2-0-2-2---2-0-2-2---0-0-0-0--0-3-0--|  X11  
G|--2-0-2-2---2-0-2-2---2-0-2-2---2-0-2-2---0-0-0-0--0-3-0--|       
C|--2-0-2-2---2-0-2-2---2-0-2-2---2-0-2-2---0-0-0-0--0-3-0--|       

d|-2-2--2-2-||
A|-2-2--2-2-||
F|-2-2--2-2-||
C|-2-2--2-2-||
G|-2-2--2-2-||
C|-2-2--2-2-||



| /  slide up
| \  slide down
| h  hammer-on
| p  pull-off
| ~  vibrato
| +  harmonic
| x  Mute note
            

comments powered by Disqus
↑ Back to top | Celldweller Tabs for Afraid This Time. Lyrics for acoustic guitar and electric guitar. Tablatures and chords are parodies/interpretations of the original songs. You may use it for private study, scholarship, research or language learning purposes only