» » »

Cave In, Jupiter Tabs (ver.1)

Artists:  A B C D E F G H I J K L M N O P Q R S T U V W X Y Z # 

Jupiter Tabs (ver.1)

Cave In Tabs
 Rating:
4/5 (4 votes)
Jupiter lessons Tabs too difficult? Try these video lessons and learn fast
1
                Felt like tabbing a Cave In song, so I picked the shortest one I know how to play...

-Intro-
 (heavy)
Eb|-3-3-3-2-2-2-2-3-3-3-3-2-2-2-2-2-------------
Bb|-3-3-3-3-3-3-3-3-3-3-3-3-3-3-3-3-------------
Gb|-0-0-0-0-0-0-0-0-0-0-0-0-0-0-0-0-------------
Db|-0-0-0-0-0-0-0-0-0-0-0-0-0-0-0-0-------------
Ab|---------------------------------------------
Eb|---------------------------------------------

Eb|-6-6-6-5-5-5-5-6-6-6-6-5-5-5-5-5--|-15-------
Bb|-6-6-6-6-6-6-6-6-6-6-6-6-6-6-6-6--|-17^-------
Gb|-3-3-3-3-3-3-3-3-3-3-3-3-3-3-3-3--|----------
Db|-3-3-3-3-3-3-3-3-3-3-3-3-3-3-3-3--|----------
Ab|----------------------------------|----------
Eb|----------------------------------|----------

-Verse-
Eb|---------------------------------------------
Bb|---------------------------------------------
Gb|------------10-11-10----10-------------------
Db|-9-10-12-13----------13----------------------
Ab|---------------------------------------------
Eb|---------------------------------------------
   "Jupiter the city is so bright..."

Eb|---------------------------------------------
Bb|---------------------------------------------
Gb|------------10-11-10----10-------------------
Db|-9-10-12-13----------13-----13-12^-----------
Ab|---------------------------------------------
Eb|---------------------------------------------

Eb|---------------------------------------------
Bb|---------------------------------------------
Gb|------------10-11-10----10--11--12-----------
Db|-9-10-12-13----------13---------12-----------
Ab|---------------------------------------------
Eb|---------------------------------------------

    C  Fmin  C
Eb|-3---4----3----------------------------------
Bb|-5---6----5---9-8-6-5-8--5-6-8---------------
Gb|-5---5----5--10-8-7-5-9--x-x-x---------------
Db|-5---3----5--------------5-7-9---------------
Ab|-3--------3----------------------------------
Eb|---------------------------------------------

-Chorus-
    C  Fm C  Fm C  G  F  Fm      C  G  F  Fm G
Eb|-0--1--0--1--0--3--1--1----|--0--3--1--1--3--
Bb|-1--1--1--1--1--0--1--1----|--1--0--1--1--0--
Gb|-0--1--0--1--0--0--2--1----|--0--0--2--1--0--
Db|-2--3--2--3--2--0--3--3----|--2--0--3--3--0--
Ab|-3--3--3--3--3--2--3--3----|--3--2--3--3--2--
Eb|-0--1--0--3--0--3--1--1----|--0--3--1--1--3--
					2x

Verse

Intro

-End-
            
Submit corrections

comments powered by Disqus
↑ Back to top | Cave In Tabs for Jupiter. Lyrics for acoustic guitar and electric guitar. 1 Tablatures and chords are parodies/interpretations of the original songs. You may use it for private study, scholarship, research or language learning purposes only