» » »

Cave In, Anchor Tabs (ver.2)

Artists:  A B C D E F G H I J K L M N O P Q R S T U V W X Y Z # 

Anchor Tabs (ver.2)

Cave In Tabs
 Rating:
4.3/5 (6 votes)
Anchor lessons Tabs too difficult? Try these video lessons and learn fast
1
                Cave in - Anchor

Standard tuning EBGDAE
The letters under the tabs are the names of the power chords.

Riff 1
E|----------------------------------------------|
B|----------------------------------------------|
G|----------------------------------------------|
D|----------------------------------------------|
A|-4444-4444--4444-4444--4444-4444--7777-5555---|
E|-2222-2222--1111-1111--0000-0000--5555-3333---|
   F#   F#    F#/F F#/F  F#/E F#/E  D    C

E|----------------------------------------------|
B|----------------------------------------------|
G|----------------------------------------------|
D|-4444-4444--4444-4444--4444-4444--------------|
A|-2222-2222--1111-1111--0000-0000--5555-3333---|
E|----------------------------------3333-1111---|
   B    B     B/A# B/A#  B/A  B/A   G    F

Play the whole of Riff 1 twice.

Riff 2
E|---2222-2222---5555-5555---|
B|---3333-3333---6666-6666---|
G|---3333-3333---6666-6666---|
D|---------------------------|
A|---------------------------|
E|---------------------------|
    D     D      F    F

Play riff 2 twice.

Riff 3
E|--------------------------------------|
B|--------------------------------------|
G|--------------------------------------|
D|-4444-4444----------------------------|
A|-2222-2222--2222-2222--5555-5555--3---|
E|------------0000-0000--3333-3333--1---|
   B    B     E    E     G    G     F

Riff 4
E|----00-----00-----00-----00-----00-----00-----00-----00--|
B|---------------------------------------------------------|
G|-------------------------------------------1-------------|
D|-4------5------6------5------4------7------2------5------|
A|-4------5------6------5------4------7------2------5------|
E|-2------3------4------3------2------5------0------3------|

Play the whole of riff 4 2 times

E|----00-----00--------------------------|
B|---------------------------------------|
G|---------------4444-4444---7777-7777---|
D|-4------7------4444-4444---7777-7777---|
A|-4------7------2222-2222---5555-5555---|
E|-2------5------------------------------|

This is the whole song.  I am not sure of the riff placement cause my CD is too 
and skips, so i can't hear the song properly.  You will have to work it out yourself.
            
Submit corrections

comments powered by Disqus
↑ Back to top | Cave In Tabs for Anchor. Lyrics for acoustic guitar and electric guitar. 1 Tablatures and chords are parodies/interpretations of the original songs. You may use it for private study, scholarship, research or language learning purposes only