» » »

Hard Headed Woman Bass tabs (ver.1)

Artists:  A B C D E F G H I J K L M N O P Q R S T U V W X Y Z # 

Hard Headed Woman Bass tabs (ver.1)

Cat Stevens
Rating:
0/5 (0 votes)

Tabs too difficult? Try these video lessons and learn fast.
                -------------------------------------------------------------------------------
			"Hard Headed Woman" - Cat Stevens
-------------------------------------------------------------------------------


Tuning:Standard


INTRO:

G|-------------------------------------------------------------------------|
D|-------------------------------------------------------------------------|
A|-5----5----5----5--------------------------------------------------------|
E|-------------------------------------------------------------------------|

VERSE:


G|-------------------------------------------------------------------------|
D|-------------------------------------------------------------------------|
A|---5---3-----------------------------------------------------------------|
E|-------------------------------------------------------------------------|


INTERLUDE:

G|-------------------------------------------------------------------------|
D|-----------5---3---------------------------------------------------------|
A|--5--3-------------------------------------------------------------------|
E|-------------------------------------------------------------------------|


POST-INTERLUDE:

G|---------------------------------------------------------------------------|
D|---------------------------------------------------------------------------|
A|--5----3-----------------5----3--------------------------------------------|
E|---------------5-5-----------------5-5----3-3------------------------------|

AND BACK INTO THE VERSE
            
Tabs too difficult? Try these video lessons and learn fast.


comments powered by Disqus
↑ Back to top | Tablatures and chords are parodies/interpretations of the original songs. You may use it for private study, scholarship, research or language learning purposes only