>
 >
Hard Headed Woman

Hard Headed Woman Guitar Tabs

Cat Stevens - Hard Headed Woman chords, tabs, tablatures, lyrics

Guitar lessons | Add/correct | Request | Top 50 tabs Artists:  A B C D E F G H I J K L M N O P Q R S T U V W X Y Z 0-9

Hard Headed Woman Guitar Tabs – Cat Stevens

CD, Sheet music, Poster

Do you like Hard Headed Woman? Share with your friends now
Bass TabsChordsChords v2Chords v3TabsUkulele
Cat Stevens
Standard tuning


                                                                         
|------1-----1-----1-----1-----1---|------1-----1-----1-----1-----1---|
|----3-----3-----3-----3-----3---3-|----3-----3-----3-----3-----3---3-|
|--2-----0-----0-----0-----0-------|--2-----0-----0-----0-----0-------|
|----------------------------------|----------------------------------|
|----------------------------------|----------------------------------|
|----------------------------------|----------------------------------|


                                                                      
------1-----1-----1-----1-----1---|------1-----1-----1-----1-----1---|
----3-----3-----3-----3-----3---3-|----3-----3-----3-----3-----3---3-|
--2-----0-----0-----0-----0-------|--2-----0-----0-----0-----0-------|
----------------------------------|----------------------------------|
----------------------------------|----------------------------------|
----------------------------------|----------------------------------|


                                                                
--------1--1-1-3-3-3-3-3-3-3-3-|--------1--1-1-3-3-3-3-3-3-3-3-|
--------3--3-3-3-3-3-3-3-3-3-3-|--------3--3-3-3-3-3-3-3-3-3-3-|
--2--2--2--2-2-4-4-4-4-4-4-4-4-|--2--2--2--2-2-4-4-4-4-4-4-4-4-|
--0--0--0--0-0-5-5-5-5-5-5-5-5-|--0--0--0--0-0-5-5-5-5-5-5-5-5-|
---------------5-5-5-5-5-5-5-5-|---------------5-5-5-5-5-5-5-5-|
---------------3-3-3-3-3-3-3-3-|---------------3-3-3-3-3-3-3-3-|


                                                                
--------1--1-1-3-3-3-3-3-3-3-3-|--------0--0-0-0-0-0-0-0-0-0-0-|
--------3--3-3-3-3-3-3-3-3-3-3-|--------1--1-1-1-1-1-1-1-1-1-1-|
--2--2--2--2-2-4-4-4-4-4-4-4-4-|--------0--0-0-0-0-0-0-0-0-0-0-|
--0--0--0--0-0-5-5-5-5-5-5-5-5-|--------2--2-2-2-2-2-2-2-2-2-2-|
---------------5-5-5-5-5-5-5-5-|--3--3--3--3-3-3-3-3-3-3-3-3-3-|
---------------3-3-3-3-3-3-3-3-|--3--3--3--3-3-3-3-3-3-3-3-3-3-|


                                                               
--3----3--3-3-1-1-1-1-1-1-1-1-|--------1--1-1-3-3-3-3-3-3-3-3-|
--4----4--4-4-1-1-1-1-1-1-1-1-|--------3--3-3-3-3-3-3-3-3-3-3-|
--5----5--5-5-2-2-2-2-2-2-2-2-|--2--2--2--2-2-4-4-4-4-4-4-4-4-|
--5----5--5-5-3-3-3-3-3-3-3-3-|--0--0--0--0-0-5-5-5-5-5-5-5-5-|
--3----3--3-3-3-3-3-3-3-3-3-3-|---------------5-5-5-5-5-5-5-5-|
--3----3--3-3-1-1-1-1-1-1-1-1-|---------------3-3-3-3-3-3-3-3-|


                                                        
--------1--1-1-3----0----|--------1--1-1-3--1--1-1-1-1-|
--------3--3-3-3----1----|--------1--1-1-1--1--3-3-1-1-|
--------3--3-3-4----0----|--------2--2-2-2--2--2-2-2-2-|
--3--3--3--3-3-5----2----|--------3--3-3-----------3-3-|
--1--1---------5----3----|--3--3--3--3-3-3--3--3-3-3-3-|
---------------3----3----|--1--1--1--1-1-1--1--1-1-1-1-|


                                                                
--------1--1-1-0-0-0-0-0-0-0-0-|--------1--1-1-0-0-0-0-0-0-0-0-|
--------3--3-3-1-1-1-1-1-1-1-1-|--------1--1-1-1-1-1-1-1-1-1-1-|
--------3--3-3-0-0-0-0-0-0-0-0-|--------2--2-2-2-2-2-2-2-2-2-2-|
--3--3--3--3-3-2-2-2-2-2-2-2-2-|--------3--3-3-2-2-2-2-2-2-2-2-|
--1--1--1--1-1-3-3-3-3-3-3-3-3-|--3--3--3--3-3-0-0-0-0-0-0-0-0-|
---------------3-3-3-3-3-3-3-3-|--1--1--1--1-1-----------------|


                                                                
--------1--1-1-3-3-3-3-3-3-3-3-|--------0--0-0-0-0-0-0-0-0-0-0-|
--------3--3-3-3-3-3-3-3-3-3-3-|--------1--1-1-1-1-1-1-1-1-1-1-|
--2--2--2--2-2-4-4-4-4-4-4-4-4-|--------0--0-0-0-0-0-0-0-0-0-0-|
--0--0--0--0-0-5-5-5-5-5-5-5-5-|--------2--2-2-2-2-2-2-2-2-2-2-|
---------------5-5-5-5-5-5-5-5-|--3--3--3--3-3-3-3-3-3-3-3-3-3-|
---------------3-3-3-3-3-3-3-3-|--3--3--3--3-3-3-3-3-3-3-3-3-3-|


                                                               
--3----3--3-3-1-1-1-1-1-1-1-1-|--------1--1-1-0-0-0-0-0-0-0-0-|
--4----4--4-4-1-1-1-1-1-1-1-1-|--------3--3-3-1-1-1-1-1-1-1-1-|
--5----5--5-5-2-2-2-2-2-2-2-2-|--2--2--2--2-2-2-2-2-2-2-2-2-2-|
--5----5--5-5-3-3-3-3-3-3-3-3-|--0--0--0--0-0-2-2-2-2-2-2-2-2-|
--3----3--3-3-3-3-3-3-3-3-3-3-|---------------0-0-0-0-0-0-0-0-|
--3----3--3-3-1-1-1-1-1-1-1-1-|-------------------------------|


                                                        
--------1--1-1-3----0----|--------1--1-1-3--1--1-1-1-1-|
--------3--3-3-3----1----|--------1--1-1-1--1--3-3-1-1-|
--------3--3-3-4----0----|--------2--2-2-2--2--2-2-2-2-|
--3--3--3--3-3-5----2----|--------3--3-3-----------3-3-|
--1--1--1--1-1-5----3----|--3--3--3--3-3-3--3--3-3-3-3-|
---------------3----3----|--1--1--1--1-1-1--1--1-1-1-1-|


                                                                
--------1--1-1-0-0-0-0-0-0-0-0-|--------1--1-1-0-0-0-0-0-0-0-0-|
--------3--3-3-1-1-1-1-1-1-1-1-|--------1--1-1-1-1-1-1-1-1-1-1-|
--------3--3-3-0-0-0-0-0-0-0-0-|--------2--2-2-2-2-2-2-2-2-2-2-|
--3--3--3--3-3-2-2-2-2-2-2-2-2-|--------3--3-3-2-2-2-2-2-2-2-2-|
--1--1--1--1-1-3-3-3-3-3-3-3-3-|--3--3--3--3-3-0-0-0-0-0-0-0-0-|
---------------3-3-3-3-3-3-3-3-|--1--1--1--1-1-----------------|


                                                                
--------1--1-1-3-3-3-3-3-3-3-3-|--------0--0-0-0-0-0-0-0-0-0-0-|
--------3--3-3-3-3-3-3-3-3-3-3-|--------1--1-1-1-1-1-1-1-1-1-1-|
--2--2--2--2-2-4-4-4-4-4-4-4-4-|--------0--0-0-0-0-0-0-0-0-0-0-|
--0--0--0--0-0-5-5-5-5-5-5-5-5-|--------2--2-2-2-2-2-2-2-2-2-2-|
---------------5-5-5-5-5-5-5-5-|--3--3--3--3-3-3-3-3-3-3-3-3-3-|
---------------3-3-3-3-3-3-3-3-|--3--3--3--3-3-3-3-3-3-3-3-3-3-|


                                                         
--3----3--3-3-1-1-1-1-1-1-1-1-|--1----1--0----0--1-1-1--|
--4----4--4-4-1-1-1-1-1-1-1-1-|--3----3--1----1--1-1-1--|
--5----5--5-5-2-2-2-2-2-2-2-2-|--2----2--2----2--2-2-2--|
--5----5--5-5-3-3-3-3-3-3-3-3-|--0----0--2----2--3-3-3--|
--3----3--3-3-3-3-3-3-3-3-3-3-|----------0----0--3-3-3--|
--3----3--3-3-1-1-1-1-1-1-1-1-|------------------1-1-1--|


                                                                           
--1----1-1-1--1----1-1-1--|--0----0----0----0--0--|--3----3----0----0--0--|
--3----3-3-1--3----3-3-1--|--1----1----1----1--1--|--3----3----1----1--1--|
--3----3-3-2--3----3-3-2--|--0----0----0----0--0--|--3----3----0----0--0--|
--3----3-3-3--3----3-3-3--|--2----2----2----2--2--|--5----5----2----2--2--|
--1----1-1-3--1----1-1-3--|--3----3----3----3--3--|--5----5----3----3--3--|
-----------1-----------1--|--3----3----3----3--3--|--3----3----3----3--3--|


                                                       
--1----1--0----0--0-0-0--||----------0-----------0----|
--1----1--0----0--0-0-0--||----------1-----------1----|
--2----2--1----1--1-1-1--||*---------2-----------2----|
--3----3--2----2--2-2-2--||*--2-2-2--2----2-2-2--2----|
--3----3--2----2--2-2-2--||---0-0-0--0----0-0-0--0----|
--1----1--0----0--0-0-0--||---------------------------|


                                                      
---------2-----------0----|---------2-----------1----|
---------3-----------1----|---------3-----------1----|
--2-2-2--2-----------2----|--2-2-2--2-----------2----|
--0-0-0--0----2-2-2--2----|--0-0-0--0-----------3----|
--------------0-0-0--0----|--------------3-3-3--3----|
--------------------------|--------------1-1-1--1----|


                                                              
---------0------------------||--------0--0-0-1-1-1-1-0-0-0-0-|
---------0------------------||--------2--2-2-2-2-2-2-2-2-2-2-|
---------1-----------------*||--------2--2-2-2-2-2-2-2-2-2-2-|
---------2-----------------*||--2--2--2--2-2-2-2-2-2-2-2-2-2-|
--2-2-2--2----2-2--2-2--2---||--0--0--0--0-0-0-0-0-0-0-0-0-0-|
--0-0-0--0----0-0--0-0--0---||-------------------------------|


                                                                
--------1--1-1-3-3-3-3-3-3-3-3-|--------0--0-0-0-0-0-0-0-0-0-0-|
--------3--3-3-3-3-3-3-3-3-3-3-|--------1--1-1-1-1-1-1-1-1-1-1-|
--2--2--2--2-2-4-4-4-4-4-4-4-4-|--------0--0-0-0-0-0-0-0-0-0-0-|
--0--0--0--0-0-5-5-5-5-5-5-5-5-|--------2--2-2-2-2-2-2-2-2-2-2-|
---------------5-5-5-5-5-5-5-5-|--3--3--3--3-3-3-3-3-3-3-3-3-3-|
---------------3-3-3-3-3-3-3-3-|--3--3--3--3-3-3-3-3-3-3-3-3-3-|


                                                         
--0----3--3-3-1-1-1-1-1-1-1-1-|--1----1--0----0--1-1-1--|
--1----4--4-4-1-1-1-1-1-1-1-1-|--3----3--1----1--1-1-1--|
--0----5--5-5-2-2-2-2-2-2-2-2-|--2----2--2----2--2-2-2--|
--2----5--5-5-3-3-3-3-3-3-3-3-|--0----0--2----2--3-3-3--|
--3----3--3-3-3-3-3-3-3-3-3-3-|----------0----0--3-3-3--|
--3----3--3-3-1-1-1-1-1-1-1-1-|------------------1-1-1--|


                                                                           
--1----1-1-1--1----1-1-1--|--0----0----0----0--0--|--3----3----0----0--0--|
--3----3-3-1--3----3-3-1--|--1----1----1----1--1--|--3----3----1----1--1--|
--3----3-3-2--3----3-3-2--|--0----0----0----0--0--|--3----3----0----0--0--|
--3----3-3-3--3----3-3-3--|--2----2----2----2--2--|--5----5----2----2--2--|
--1----1-1-3--1----1-1-3--|--3----3----3----3--3--|--5----5----3----3--3--|
-----------1-----------1--|--3----3----3----3--3--|--3----3----3----3--3--|


                                                          
--1----1--0----0--0--0--|--1--1--1-1-1-1-3-3-3-3-3-3-3-3-|
--1----1--1----1--1--1--|--3--3--3-3-3-3-3-3-3-3-3-3-3-3-|
--2----2--2----2--2--2--|--2--2--2-2-2-2-4-4-4-4-4-4-4-4-|
--3----3--2----2--2--2--|--0--0--0-0-0-0-5-5-5-5-5-5-5-5-|
--3----3--0----0--0--0--|----------------5-5-5-5-5-5-5-5-|
--1----1----------------|----------------3-3-3-3-3-3-3-3-|


                                                                  
--1--1--1-1-1-1-3-3-3-3-3-3-3-3-|--1--1--1-1-1-1-3-3-3-3-3-3-3-3-|
--3--3--3-3-3-3-3-3-3-3-3-3-3-3-|--3--3--3-3-3-3-3-3-3-3-3-3-3-3-|
--2--2--2-2-2-2-4-4-4-4-4-4-4-4-|--2--2--2-2-2-2-4-4-4-4-4-4-4-4-|
--0--0--0-0-0-0-5-5-5-5-5-5-5-5-|--0--0--0-0-0-0-5-5-5-5-5-5-5-5-|
----------------5-5-5-5-5-5-5-5-|----------------5-5-5-5-5-5-5-5-|
----------------3-3-3-3-3-3-3-3-|----------------3-3-3-3-3-3-3-3-|


                     
--1----------------||
--3----------------||
--2----------------||
--0----------------||
-------------------||
-------------------||





Comments


Popular Cat Stevens tabs & chords
Blackness Of The Night Chords
If I Laugh Chords
Maybe Theres A World Chords
Maybe You're Right Chords
Midday Avoid City After Dark Chords
Matthew And Son Tabs
Peace Train 1 Tabs
The Wind 1 Tabs
Baby Get Your Head Screwed On Ukulele
O Caritas Ukulele


Song lyrics



↑ Back to top | Tablatures and chords are parodies/interpretations of the original songs. You may use it for private study, scholarship, research or language learning purposes only
© 2014 AZChords.com Contact us | Privacy policy | DMCA | Add/correct tabs | Request tabs | Top 50 tabs