» » »

Casualties, *** You All Bass tabs (ver.1)

Artists:  A B C D E F G H I J K L M N O P Q R S T U V W X Y Z # 

*** You All Bass tabs (ver.1)

Casualties Tabs
 Rating:
4/5 (4 votes)
*** You All lessons Tabs too difficult? Try these video lessons and learn fast
1
                *** YOU ALL - The Casualties 



intro 
G|--------------------------------------------| 
D|--------------------------------------------| 
A|------------9---------4----------7----------| 
E|--7-----------------------------------------| 

G|--------------------------------------------------------| 
D|--------------------------------------------------------| 
A|-----------------99999999-44444444-77777777-------------| 
E|--77777777----------------------------------------------| 

G|--------------------------------------------------------| 
D|--------------------------------------------------------| 
A|----------------9-9-----------4-4-----------7--7--7-----| 
E|--7-----------------------------------------------------| 

G|--------------------------------------------------------| 
D|--------------------------------------------------------| 
A|----------9999-4444-9999--------------------------------| 
E|--7777--------------------------------------------------| 

G|-----------------------------------|--------------------| 
D|-----------------------------------|--------------------| 
A|--7777---------4444-9999-----------|--9-7-6-4-----------| 
E|----------7777---------------------|--------------------|
            
Submit corrections

comments powered by Disqus
↑ Back to top | Casualties Bass for *** You All. Lyrics for acoustic guitar and electric guitar. 1 Tablatures and chords are parodies/interpretations of the original songs. You may use it for private study, scholarship, research or language learning purposes only