» » »

Police Bruality Bass tabs (ver.1)

Artists:  A B C D E F G H I J K L M N O P Q R S T U V W X Y Z # 

Police Bruality Bass tabs (ver.1)

Casualties
Rating:
0/5 (0 votes)

Hard to play? Try these video lessons and learn fast.
                this song is origionaly by the unseen.easy here you go
G|-----------------------------------------
D|----------------------------------------------
A|----------7-7-7-7--5-5-4-4--------------------
E|-5-5-5-5-------------------7-7-7-7-7--------


G|---------------------------------------------
D|---------------------------------------------
A|-9-9-9-9----------7-7-7-7---------------
E|----------7-7-7-7----------7-7-7-7-------------
verses
G-----------------------------------------------------
D-----------------------------------------------------
A---------7-7-7-7---10-10-10-10--7-7-7-7----------------
E-5-5-5-5------------------------------------------------

G----------------------------------------------------------
D-----------------------------------------------------------
A---------7777--10-10-10-10---7-7-7-7--------------------
E-5-5-5-5-------------------------------------------------

G------------------------------------------------------------
D----------------------------------------------------
A-5-5-5-5-5---------5-5-5---------------------------
E-----------5-5-5-5--------5------4-----------------
            
Hard to play? Try these video lessons and learn fast. | Correct




comments powered by Disqus
↑ Back to top | Tablatures and chords are parodies/interpretations of the original songs. You may use it for private study, scholarship, research or language learning purposes only