» » »

Casualties, No Room For The Youth Tabs (ver.1)

Artists:  A B C D E F G H I J K L M N O P Q R S T U V W X Y Z # 

No Room For The Youth Tabs (ver.1)

Casualties Tabs
 Rating:
4/5 (4 votes)
No Room For The Youth lessons Tabs too difficult? Try these video lessons and learn fast
                intro
e|---------------------------------------------------------------------------|
B|---------------------------------------------------------------------------|
G|-9-9-9-9------------------9-9-9-9------------------------------------------|
D|-9-9-9-9-9-9-9-9--11-9-7--9-9-9-9--9-9-9-9--7-7-7-7--9-9-9-9---------------|
A|-7-7-7-7-9-9-9-9--11-9-7--7-7-7-7--9-9-9-9--7-7-7-7--9-9-9-9---------------|
E|---------7-7-7-7--9--7-5-----------7-7-7-7--5-5-5-5--7-7-7-7---------------|

  verse
e|---------------------------------------------------------------------------|
B|---------------------------------------------------------------------------|
G|-11-11-11-11---------------------------------------------------------------|
D|-11-11-11-11-9-9-9-9--4--7--11-11-11-11-11---------------------------------|
A|-9--9--9--9--9-9-9-9--4--7--11-11-11-11-11---------------------------------|
E|-------------7-7-7-7--2--5--9--9--9--9--9----------------------------------|

chorus
e|---------------------------------------------------------------------------|
B|---------------------------------------------------------------------------|
G|-9-9-9-9-------------------------------------------------------------------|
D|-9-9-9-9--9-9-9-9--11-9-7-7-7-7-7------------------------------------------|
A|-7-7-7-7--9-9-9-9--11-9-7-7-7-7-7------------------------------------------|
E|----------7-7-7-7--9--7-5-5-5-5-5------------------------------------------|
            
Submit corrections

comments powered by Disqus
↑ Back to top | Casualties Tabs for No Room For The Youth. Lyrics for acoustic guitar and electric guitar. Tablatures and chords are parodies/interpretations of the original songs. You may use it for private study, scholarship, research or language learning purposes only