» » »

Here Today.. Tabs (ver.1)

Artists:  A B C D E F G H I J K L M N O P Q R S T U V W X Y Z # 

Here Today.. Tabs (ver.1)

Casualties
Rating:
0/5 (0 votes)

Hard to play? Try these video lessons and learn fast.
                e--------------------|
B--------------------|
G--------------------|
D--7--777---9--5-----|
A--7--777---9--5-----|
E--5--555---7--3-----|
PM    ...

e---------------------------------------|
B---------------------------------------|
G-----7-----7---------------7--6--------|
D--7--7--9--7--9------7--5--7--6--9--7--|
A--7--5--9--5--9------7--5--5--4--9--7--|
E--5-----7-----7------5--3--------7--5--|

Part 1
e-------------------|
B-------------------|
G-----7-----7-------|
D--7--7--9--7--9----|
A--7--5--9--5--9----|
E--5-----7-----7----|

Part 2
e--------------------|
B--------------------|
G--------7--6--------|
D--7--5--7--6--9--7--|
A--7--5--5--4--9--7--|
E--5--3--------7--5--|

Part 3
e---------------     ---------|
B---------------     ---------|
G---------------     ---------|
D--5--9-9-9--7--     --5--7---|
A--5--9-9-9--7--     --5--7---|
E--3--7-7-7--5--     --3--5---|

Part 4
e-----------------|
B-----------------|
G--7--------7-----|
D--7--7--9--7--7--|
A--5--7--9--5--7--|
E-----5--7-----5--|

Solo
e---------------------------------------------------------|
B---------------------------------------------------------|
G---77777777---9999999---11-11-11-11-11---12-11-12-11-12--|
D---------------------------------------------------------|
A---------------------------------------------------------|
E---------------------------------------------------------|
            
Hard to play? Try these video lessons and learn fast. | Correct




comments powered by Disqus
↑ Back to top | Tablatures and chords are parodies/interpretations of the original songs. You may use it for private study, scholarship, research or language learning purposes only