» » »

Casualties, Fuck You All Bass tabs (ver.1)

Artists:  A B C D E F G H I J K L M N O P Q R S T U V W X Y Z # 

Fuck You All Bass tabs (ver.1)

Casualties Tabs
Rating:
0/5 (0 votes)
Fuck You All lessons Tabs too difficult? Try these video lessons and learn fast
                ----------------------------------------------------------------------------
                              C(A)SU(A)LTIES.
----------------------------------------------------------------------------


Intro 1. (0:13 with drums).
|------------------------------------------------------|
|------------------------------------------------------|
|------------------9--------------------------------7--|
|-----7-----------------------------9------------------|

Intro 2.
|-------------------------------------|
|-------------------------------------|
|----------99999999----------77777777-|
|-77777777----------99999999----------|

Intro 3.
|------------------------------------------|
|------------------------------------------|
|----------9-9-9-----------7-7-7-7-7-7-7-7-|
|-7-7-7------------9-9-9-------------------|

Verse.
|-----------------------------------|
|-----------------------------------|
|----------9-9-9-9----------9-9-9-9-|
|-7-7-7-7----------9-9-9-9----------|

Chorus.                                   End of chorus.
|---------------------------------|      |------------|
|---------------------------------|      |------------|
|-7-7-7-7-----------------9-9-9-9-|      |--9-7-------|
|---------7-7-7-7-9-9-9-9---------|      |-------9-7--|

That's all. 
            

comments powered by Disqus
↑ Back to top | Casualties Bass for Fuck You All. Lyrics for acoustic guitar and electric guitar. Tablatures and chords are parodies/interpretations of the original songs. You may use it for private study, scholarship, research or language learning purposes only