» » »

"4g" Bass tabs (ver.1)

Artists:  A B C D E F G H I J K L M N O P Q R S T U V W X Y Z # 

"4g" Bass tabs (ver.1)

Casualties
Rating:
0/5 (0 votes)

Hard to play? Try these video lessons and learn fast.
                4G - The Casualties 



Intro: 
--77-55-77--77-55-77-------------- 
-5---------5---------------------- 
-----------------------555-3-333-5 
----------------------3----------- 

Verses: 
--------------- 
--------------- 
------5-33333-5 
-33333--------- 

Chorus: 
------- 
------- 
-5-3-5- 
------3
            
Hard to play? Try these video lessons and learn fast. | Correct




comments powered by Disqus
↑ Back to top | Tablatures and chords are parodies/interpretations of the original songs. You may use it for private study, scholarship, research or language learning purposes only