» » »

Casting Crowns, American Dream Tabs (ver.2)

Artists:  A B C D E F G H I J K L M N O P Q R S T U V W X Y Z # 

American Dream Tabs (ver.2)

Casting Crowns Tabs
Rating:
0/5 (0 votes)
American Dream lessons Tabs too difficult? Try these video lessons and learn fast
                -------------------------------------------------------------------------------
-------------------------------------------------------------------------------
Tuning: regular

You might have to listen to the song to get the tempo and such.

100% correct

Verse/Bridge/Outro:
e|----------------------------0----| \
B|--3---3---3-5-7---7---8p7-----7--|  \
G|----2---2-----7-7---7-----7------|  x8
D|---------------------------------|  / 
A|---------------------------------| /
E|---------------------------------|/


Pre-Chorus:
    E  E E E F#  G G G G G  D D D D
e|--0--0-0-0-----3-3-3-3-3--2-2-2-2--|\
B|--0--0-0-0-----3-3-3-3-3--3-3-3-3--| \
G|--1--1-1-1-----0-0-0-0-0--2-2-2-2--| x2
D|--2--2-2-2-----0-0-0-0-0--0-0-0-0--| /
A|--2--2-2-2-----2-2-2-2-2-----------|/
E|--0--0-0-0--2--3-3-3-3-3-----------|


Chorus:
e|---------------------------|
B|---------------------------|\
G|--7-7---------4-4----------| \
D|--7-7---5-5---4-4--5/7-----| x2
A|--5-5---5-5---2-2--5/7-----| /
E|--------3-3--------3/5-----|/

e|---------------------------------|
B|---------------------------------|\
G|--4--4--7-7-7-7--12--12--12--12--| \
D|--x--x--x-x-x-x--x---x---x---x---| x2
A|--2--2--5-5-5-5--10--10--10--10--| /
E|---------------------------------|/

Verse
Pre-Chorus
Chorus
Bridge
Pre-Chorus
Chorus
Outro
            

comments powered by Disqus
↑ Back to top | Casting Crowns Tabs for American Dream. Lyrics for acoustic guitar and electric guitar. Tablatures and chords are parodies/interpretations of the original songs. You may use it for private study, scholarship, research or language learning purposes only