>
 >
Tennessee Waltz

Tennessee Waltz Guitar Tabs

Cassidy Eva - Tennessee Waltz chords, tabs, tablatures, lyrics

Guitar lessons | Add/correct | Request | Top 50 tabs Artists:  A B C D E F G H I J K L M N O P Q R S T U V W X Y Z 0-9

Tennessee Waltz Guitar Tabs – Cassidy Eva

CD, Sheet music, Poster

Do you like Tennessee Waltz? Share with your friends now
Tabs
By Eva Cassidy

Capo:  1

This is a pretty easy song, compared to a lot of Eva's guitar work.
You basically are just pinching the base note and two of the higher
strings all the way through, 
except for a couple of walk-ups and -downs.

Intro (G)
-------3-----3--------3-----3--------3-----3--------3------3-----
-------0-----0--------0-----0--------0-----0--------0------0-----
---0------0--------0-----0--------0-----0--------0-----0---------
-3-----3-----3---3----3-----3---3----3-----3---3----3------3-----

Begin Verse   G                G          G     Am    G/B    C
------------3-----3----------3-----3-------------------------0---
------------0-----0----------0-----0------0------1-----3---------
--------------------------------------------0--------------------
---------0-----0----------0-----0------0------0-----0-----0------
-------------------------------------------------0-----2-----3---
------3-----3-----3-----3----3-----3------3----------------------
I was dancing   with my darling   to the  Tenne        see   Waltz

      C            G             Em                 Am  G/B    C
---0-----0------------3----------------0-----0-----------------0-
---1-----1------------0----------------0-----0------1----3-------
-0----0------0-----0-----0----0----2------2-----2-----0-----0----
---3-----3------------------------------------------0----2-----3-
-----------------3----3-----2----0-----0-----0-------------------
         when an old friend I    happened    to     meet

     D                    G                     G
-----2------2--------------------3-----3----------3-----3--------
------------3---0----------------0-----0----------0-----0--------
---------2-------------------------------------------------------
-0---0------0----------0-----0------0------0---0-----0-----0-----
--------------------2-----3------3-----3-----3----3-----3--------
             I      introduced her     to my darling

    G     Am   G/B    C        C         G           D
----------------------0-----0-----0---------3-----------3--------
----0-----1-----3-----------1-----1---------0-----------2--------
------0-----------------------------------------------2----------
--------0----0-----0-----2-----2-----2----0---0-----0---0--0-----
----------0-----2-----3-----3-----3-------------2-3-------------0
----3-----------------------------------3---3-----------------2--
and while they  were  dancing     my friend stole  my sweetheart

     G            G
------3-----3-----3-------
------0-----1-----0-------
--------------------------
---0-----0-----0----------
--------------------------
-3----3-----3-----3-------

Begin Chorus       G            Bm                       C              
-----------------3-----3-----------2-----2-------------0-----0--
-----------------0-----0-----------3-----3-------------1-----1--
--------------0-----0-----0-----4-----4-----4-------2-----2-----
-----------------------------2-----2-----2-------3-----3-----3--
-----------3-----3-----3----------------------------------------
I  re      member      the   night     and the   Ten   nes  see

        G           G                  Em            Am    G/B
--------3-----------3-----3--------------0-----0----------------
--------0-----1-----0-----0--------------0-----0-----1-----3----
--------------0----------------------------------------0------0-
-----0-----0-----0-----0-----0----0---2-----2-----2------0------
-----------------------------------------------------0-----2----
--3-----3-----3-----3-----3-----2---0----0-----0----------------
  Waltz             I know now   just what I have lost


   C       D             G            G              G
-0-----2-----2---------------3-----------3-----3----------------
-------------3---------------0-----1-----0-----0-----1----0-----
---0------2-----2------------------0-----------------0------0---
-------0-----0-------0----0-----0-----0-----0-----0-----0-----0-
-3--------------------------------------------------------------
-------------------2---3-----3-----3-----3-----3-----3----3-----
                  Yes I lost my        little darling    the night


  Am    G/B   C         C           G                  D
--------------0-----0-----0-----------3-----------------2-------
--1-----3-----------1-----1-----------0-----------------3-------
-----0-----0-----------------------------------------2-----0----
-----------------2-----2-----0-----0-----0--------0-----0-------
--0-----2-----3-----3-----3-----------------2--3----------------
---------------------------------3----3-------------------------
 they  were  playing      the    beautiful             Ten



                G           G
-------------3-----------3-----3--
-------------0-----1-----0-----0--
-------------------0--------------
----0-----0-----0-----0-----0-----
----------------------------------
--2----3-----3-----3-----3-----3--
nessee Waltz

Then play the second chorus the same way up until "the beautiful Tennessee"
where you play this:

   G   Am   G/B    C            C       G               D
-------------------0------0-----0----------3--------------2---
-0-----1-----3------------1-----1----------0--------------3---
---0------0-----0---------------------------------------2-----
-----0-----------------2-----2-----0----0-----0-------0---0---
-------0-----2-----3------3-----3----------------2--3---------
-3------------------------------------3----3------------------
 Waltz                           the  beautiful       Tennessee


               C   G/B  Am    G
--------------------------------------------------------------
--------------------3---1-----0-------------------------------
--------------------------------------------------------------
--------------------------------------------------------------
---------------3----2---0-------------------------------------
------------------------------3-------------------------------
             Waltz





Comments


Popular Cassidy Eva tabs & chords
Fields Of Gold Chords
Over The Rainbow Chords
Wade In The Water Chords
At Last Tabs
Danny Boy Tabs
I Wandered By A Brookside Tabs
It Doesnt Matter Anymore Tabs
Over The Rainbow Tabs
Somewhere Over The Rainbow Tabs
Songbird Tabs


Song lyrics



↑ Back to top | Tablatures and chords are parodies/interpretations of the original songs. You may use it for private study, scholarship, research or language learning purposes only
© 2014 AZChords.com Contact us | Privacy policy | DMCA | Add/correct tabs | Request tabs | Top 50 tabs