>
 >
Danny Boy

Danny Boy Guitar Tabs

Cassidy Eva - Danny Boy chords, tabs, tablatures, lyrics

Guitar lessons | Add/correct | Request | Top 50 tabs Artists:  A B C D E F G H I J K L M N O P Q R S T U V W X Y Z 0-9

Danny Boy Guitar Tabs – Cassidy Eva

CD, Sheet music, Poster

Do you like Danny Boy? Share with your friends now
Tabs
By Eva Cassidy
  
I tried to line up the lyrics with the tablature, 
but it doesn't work all the way through.  
Just listen to the CD and you can
figure it out.  Sorry I made the lines so long.  


                                                                                                                       
    C                                     C                   C                            F
------------------------------------------------------------0--------------------------------------------
----1---------------------------------------1-----------------------1------------------------1-----------
------------------------------------------0--------0---0---------0--------0----0----------2-----2--------
---------------------------------------2--------0----0--------2-------0-----2----------3-----------------
----3-------------------------------3-----------------------3--------------------------------------------
                         Oh, Danny  Boy                 the pipes the pipes are        calling  
      

                  Dm7              Dm7             C                            Am           G                    Dm7                         
   
-------------------1---------------1----------------------------------------------------------------------------------------1---------
--------------------------1---------------1------------------------------------------------------------------------1---------------1--
----2--------0---------2-----2---------2-----0---------0------------0-------------2-------------0---------------2-----2--------2------
--3--------2-------0---------------0----------------2-----2------0-----0-------2-----2-------0-----0----------0-------------0---------
--3--------3--------------------------------------3-----------2------------0-------------------------------------------------------0--
                                    from glen to glen                 and down the        mountain        side                                          

  

  G                              C                      C                              F                          Dm7                                                                                                                                                  
--------------------------------------------------------0--------------------------------------------------------1-------------
--3--------------------3--------------1-----------------------1-------------------------1-------------------------------1------
--0--------0---------0--------------0-------0----0----------0--------0-----0---------2-----2---------2-------0-------2-----2---
--------0-----0---0---------0-----2-------0----0----------2-------0-----2---------3--------------3-------2-------0-------------
--------------------------------3-----------------------3----------------------------------------3-------3---------------------
--3-------------------------------------------------------------------------------1--------------------------------------------
               The summer's     gone                    and all the flowers       dying      


 
  Dm7                 C                               Dm7      G                  C                                                                                              
--1------------------------------0-----0--------------------------------------------------------------------------
----------1----------------------1-----1--------------1-------------------------------------1------------1--------
-------2-----0----------0-----------0------0-------2-----2-----------0-------------0-----------0-----0------------
--0------------------2-----2-----0-----2-------0------------------0-----0--------2----2-----3-----3------2--------
-------------------3----------------------------------------------------------3--------------------------3--------
-------------------------------------------------------------3----------------------------------------------------
 Tis you, tis      you             must        go and        I           must bide 

 

  G                  C                            F                          C                 G                                                                                                                    
-------------------------1------------------------------1------------------------------------1p0---------------
-------0---------------0-------0----------------------2-----------2-----------0---------0------------------0---
-----0---0----------2-------0-----2-----------------3-----------3---3-------2---2-----2---2--------------0---0-
------------------3-----------------------------------------------------3----------3---------------------------
--3----------------------------------------------1----------1---------------------------------3----------------
      But come ye back           when            summer's in     the    meadow          

  
 
  G                      Am            G               F             Em             Dm7                     G                                                                                                                 
---0----------------------------------------------------1----------------------------1----------------1-----3-------------
--------0-----------------2------------0-------------2-----2-----------0-----------2---2----------2---------0------0------
------0---0-------------2---2--------0---0--------3------------------2---2-----0-------------0-----------0-------0---0----
----------------------0-------------------------------------------------------------------------------0-------------------
---3-------------------------------3--------------1---------------0-----------------------------------------3-------------
   or when the        va-         -a-     lley's  hushed and      white with  snow                      


 
    G           C                          F                      C                                                                              
-----------------------------------------------------5-------------------------------
----------------------------------------------1------6-------------------------------
------0-----------0--------0----0----------2-----------------------0----------0------
----0---0-------2---2----0----2---------3------------------------2---2------2---2----
--------------3------------------------------------------------3----------3----------
--3-------------------------------------1--------------------------------------------
 Tis I'll be  here       in             sunshine       or in   shadow       



    F                             C                 Am             Dm7            G           C                                             
------------------1-----1------------1----------------1-------------1---------------------------------1-----1-----1-----1-----
---------2--------2-----2------------0----------------2-----------2----2-----------0-----------0---------0-----0------0---0---
------3-----3--------3-----3------2------2---------2------2----0----------------0-----0------2---2----3-----3-----2-----------
--------------------------------3------------0---------------------------------------------3----------------------3-----------
--1---------------1-----------------------------------------------------------3-----------------------------------------------
                  Oh, Danny     Boy     oh,  Danny             Boy         I  love you     so                  


    
--------------------------0---------------3-------------------------------------------------------------1---------------
-1p0------------------------------1-------------1--------------1------------------1----------------------------1--------
------------0-------------------0---------------0------------0-------0----------2---2--------2------0--------2---2------
---------0-----0--------------2--------------2------2------2-------0----2----3-----------3-------2------0---------------
--------------------------3---------------3--------------3-------------------------------3-------3----------------------
--3--------------------------------------------------------------------------1------------------------------------------
        But when ye       come                           and all the roses   falling      



    
-----1------1---------------------------------------------------------------------------1---------------------------
------------1-------------1-------------0---------------------------------------1---------------1-------3-----------
---------2-----2----------0-------------0-----------2-----------0----------2----2-------2---2-------0--------0------
-----0----------------2-------------0-------------2---2-------0---0-----0-----------0-----------0----------0---0----
--------------------3--------3---2---------2----0-------------------------------------------------------------------
-----------------------------------------------------------3--------------------------------------------3-----------
     and I am       dead               as       dead  I    well     may be 


    
----------------------------------------1-------1------------------------------1-----------------------1------------1-------
----------0-------------0--------0------0-------0------------0---------------2---2------2-----0-----2-----2-------2---0-----
--------0---0---------2---2----2---2--------2-------2------2---2----------3-----------3-----2-----0-------------0-----------
--------------------3--------3----------3-------3-------3-----------------------------3-----3-------------------------------
----3---------------------------------------------------------------------1-------------------------------------------------                               
    go out and      find                the place where I am              lying                                and kneel and 


       
--------------0-----0-------1----------------------------------------------------------------------------
--------------1-----1------------1--------------------------------------1------------1--------1----------
-------0---------0-----0-------2---2-------------0--------------0----------0-----0---------0-----0-------
----2----2----0-----2-------0------------------0---0---------2-----2----3-----0-----0h2-------2----------
--3--------------------------------------------------------3-------------------------3-------------------
---------------------------------------------3-----------------------------------------------------------
  say          an           Ave              there   for   me                    



    
-------------------------1----------------------1------------------------------------------0--------------
-------0---------------0--------0---0---------2----------2-------------0---------0---------0------0-------
-----0---0-----------2-------0----2---------3----------3---3--------2-----2----2---2------------0---0-----
-------------------3----------------------------------------------3----------3----------------------------
--3--------------------------------------1----------1--------------------------------------3--------------
  And I will       he      -ar    though soft your  tread    a -  bove me                 



       
--0-----------------------------------------------------------------------1--------------1-------3------------
--0------0-----------------2----------0-----2----2-----------0----------2---2-------2----2-------0-----0------
-------0---0-------------2---2------0---0------3---3-------2---2------0---------0------------0-------0---0----
----------------------0---------------------------------------------------------------------------------------
--3------------------------------3----------1------------0---------------------------------------3------------
  and then my         gra-       -ave will  wam and      sweeter      be           



  
--------------------------------------------------------5----------------------------------------------------
----------------------------------------------1--------6------------------------------1------------------1---
---0----0------------0--------0-----0-------2---------5-----------------------------0------0-----------2-----
------0---0--------2---2---0-----2--------3----------0----------------------------2------0---2-------3-------
-----------------3--------------------------------------------------------------3----------------------------
---3-----------------------------------1-----------------------------------------------------------1---------
   for you shall be        -end   and  tell me                 that you         love     me      

  

------------------------------------------------------1----------------------------
---------1--------------------1-----1-----------------1----------------------------
-------2---------------0------2-----2--------------2-----2-------0-----------------
-----3---------------2---2-------2--------------0----------------------------------
-------------------3----------0-----0----------------------------------------------
--1--------------------------------------------------------------3-----------------
  and     I will   sleep in   peace         un  til      you     come 


             
------------1----------1-------1------------------------------------------------------
---------------0---0-------0----------0-----------------------------------------------
---------2---------3-------0---------0h2----------------------------------------------
-------3----------------------------3-------------------------------------------------
to  me





Comments


Popular Cassidy Eva tabs & chords
Anniversary Song Chords
Fields Of Gold Chords
Over The Rainbow Chords
At Last Tabs
Early Morning Rain Tabs
Fields Of Gold Tabs
I Wandered By A Brookside Tabs
It Doesnt Matter Anymore Tabs
Somewhere Over The Rainbow Tabs
Woodstock Tabs


Song lyrics



↑ Back to top | Tablatures and chords are parodies/interpretations of the original songs. You may use it for private study, scholarship, research or language learning purposes only
© 2014 AZChords.com Contact us | Privacy policy | DMCA | Add/correct tabs | Request tabs | Top 50 tabs