>
 >
Top Of The World

Top Of The World Bass Tabs

Carpenters - Top Of The World chords, tabs, tablatures, lyrics

Guitar lessons | Add/correct | Request | Top 50 tabs Artists:  A B C D E F G H I J K L M N O P Q R S T U V W X Y Z 0-9

Top Of The World Bass Tabs – Carpenters

CD, Sheet music, Poster

Do you like Top Of The World? Share with your friends now
Bass TabsChordsChords v2Chords v3Chords v4Chords v5Chords v6Chords v7Chords v8Ukulele
carpenters_top of the world

TablEdited by Jan Bjorklund   
You are welcome to request for tabs!
Fingering and positions as suggested by TablEdit, please use common sense.

TablEdited by Jan Bjorklund
Tuning : E A D G 	Time Signature: 4/4

 |               |               |               |                
|----------------------------------------------------------------|
|----------------------------------------------------------------|
|----------------------------------------------------------------|
|------------------------------1---------------3-----------------|

 |               |               |               |                
|----------------------------------------------------------------|
|----------------------------------------------------------------|
|0-----------------1-------------------------1-------------------|
|----------------------------------------------------1-----------|

 |               |               |               |                
|----------------------------------------------------------------|
|----------------------------------------------------------------|
|------------------------1-----------------1---------------3-----|
|----------------------------------------------------------------|

 |               |               |               |                
|----------------------------------------------------------------|
|------------0-----------------1-------------------------1-------|
|----------------------------------------------------------------|
|----------------------------------------------------------------|

 |               |               |               |                
|----------------------------------------------------------------|
|------------------------------------1-----------------1---------|
|1---------------------------------------------------------------|
|----------------------------------------------------------------|

 |               |               |               |                
|----------------------------------------------------------------|
|------0---------------------------------------------------------|
|------------------------3-----------------1---------------------|
|----------------------------------------------------------------|

 |               |               |               |                
|----------------------------------------------------------------|
|----------------------------------------------------------------|
|----1-----------------------------------------------------------|
|--------------1---------------------------------1---------------|

 |               |               |               |                
|----------------------------------------------------------------|
|----------------------------------------------------------------|
|------------------------------------0-----------------1---------|
|----------1---------3-------------------------------------------|

 |               |               |               |                
|----------------------------------------------------------------|
|----------------------------------------------------------------|
|----------------------------------------------------------------|
|----------------------------------------------------------------|

 |               |               |               |                
|----------------------------------------------------------------|
|----------------------------------------------------------------|
|----------------------------------------------------------------|
|------------------------------------------------1---------------|

 |               |               |               |                
|----------------------------------------------------------------|
|--------------------------------------1-------------------------|
|--1-------------------------1-----------------------------------|
|----------------------------------------------------------------|

 |               |               |               |                
|----------------------------------------------------------------|
|--------------------------------------------1-------------------|
|--------1-------------------------1-----------------------------|
|----------------------------------------------------------------|

 |               |               |               |                
|----------------------------------------------------------------|
|--------------------------------------------------1-------------|
|--------------1-------------------------1-----------------------|
|----------------------------------------------------------------|

 |               |               |               |                
|----------------------------------------------------------------|
|----------------------------------------------------------------|
|--------------------1-------------------------------------------|
|--------------------------------------1-----------------3-------|

 |               |               |               |                
|----------------------------------------------------------------|
|----------------------------------------------------------------|
|----------0---------------1---------------------------1---------|
|--------------------------------------------------------------1-|

 |               |               |               |                
|----------------------------------------------------------------|
|----------------------------------3-------------------------3---|
|----------------------------------------------------------------|
|----------------------------------------------------------------|

 |               |               |               |                
|----------------------------------------------------------------|
|----1-----------------------------------------------------------|
|----------------------------------------1-----------------------|
|----------------------------------------------------------------|

 |               |               |               |                
|----------------------------------------------------------------|
|----------------------------------------------------------------|
|--1-------------------------------------------1-----------------|
|----------1-----------------------------------------------------|

 |               |               |               |                
|----------------------------------------------------------------|
|----------------------------------------------------0-----------|
|--------1-------------------------------------------------------|
|----------------1-----------------------------------------------|

 |               |               |               |                
|----------------------------------------------------------------|
|--------------0-------0-----------------------------------------|
|----------------------------------------------------------3-----|
|----------------------------------------------------------------|

 |               |               |               |                
|----------------------------------------------------------------|
|----------------------------3-----------------------------------|
|--------------------3-------------------------------------------|
|----------------------------------------------------------------|

 |               |               |               |                
|----------------------------------------------------------------|
|----------------------------------------------------------------|
|1-------------------------1-------------------------------------|
|----------------------------------1-----------------------------|

 |               |               |               |                
|----------------------------------------------------------------|
|----------------------------------------------------------0-----|
|------1-----------------1---------------3-----------------------|
|----------------------------------------------------------------|

 |               |               |               |                
|----------------------------------------------------------------|
|------------1-------------------------1-------------------------|
|----------------------------------------------1-----------------|
|----------------------------------------------------------------|

 |               |               |               |                
|----------------------------------------------------------------|
|------------------3-------------------------3-------1-----------|
|----------------------------------------------------------------|
|----------------------------------------------------------------|

 |               |               |               |                
|------------------------------------------------------------2---|
|------------------------0-------------------------0-------------|
|----------------------------------------------------------------|
|----------------------------------------------------------------|

 |               |               |               |                
|------------------------------0-------------------------0-------|
|----------------------------------------------------------------|
|----------------------------------------------------------------|
|----------------------------------------------------------------|

 |               |               |               |                
|----------------------------------------------------------------|
|--0-------------------------------------------------------------|
|------------------------------------3-------------------------3-|
|----------------------------------------------------------------|

 |               |               |               |                
|----------------------------------------------------------------|
|----------------------------------------------------------------|
|--------3---------------------------------3---------------------|
|----------------------------------------------------------------|

 |               |               |               |                
|----------------------------------------------------------------|
|----------------------------------------------------------------|
|----3---------3-------------------------------------------------|
|------------------------------------------------1---------------|

 |               |               |               |                
|----------------------------------------------------------------|
|----------------------------------------------------------------|
|--------------------3-------------------------------------------|
|----------1-------------------------------------------1---------|

 |               |               |               |                
|----------------------------------------------------------------|
|----------------------------------------------------------------|
|--------------------------------------------0---------------1---|
|--------1-----------------3-------------------------------------|

 |               |               |               |                
|----------------------------------------------------------------|
|----------------------------------------------------------------|
|----------------------1-----------------------------------------|
|--------------------------------1-------------------------------|

 |               |               |               |                
|----------------------------------------------------------------|
|--3---------------------------3-------1-------------------------|
|----------------------------------------------------------------|
|----------------------------------------------------------------|

 |               |               |               |                
|----------------------------------------------------------------|
|----------------------------------------------------------------|
|--------1---------------------------1---------------------------|
|--------------------------------------------1-------------------|

 |               |               |               |                
|----------------------------------------------------------------|
|----------------------------------------------------------------|
|--------------1---------------------------1---------------------|
|--------------------------------------------------1-------------|

 |               |               |               |                
|----------------------------------------------------------------|
|----------------------0-------------------------0-------0-------|
|----------------------------------------------------------------|
|----------------------------------------------------------------|

 |               |               |               |                
|----------------------------------------------------------------|
|--------------------------------------------------------------3-|
|----------------------------3-------------------------3---------|
|----------------------------------------------------------------|

 |               |               |               |                
|----------------------------------------------------------------|
|----------------------------------------------------------------|
|----------------------------------1-------------------------1---|
|----------------------------------------------------------------|

 |               |               |               |                
|----------------------------------------------------------------|
|----------------------------------------------------------------|
|----------------------------------------1---------------1-------|
|----1-----------------------------------------------------------|

 |               |               |               |                
|----------------------------------------------------------------|
|----------------------------0-----------------1-----------------|
|----------3-----------------------------------------------------|
|----------------------------------------------------------------|

 |               |               |               |                
|----------------------------------------------------------------|
|--------1-------------------------------------------3-----------|
|----------------1-----------------------------------------------|
|----------------------------------------------------------------|

 |               |               |               |                
|----------------------------------------------------------------|
|--------------3-------1-----------------------------------0-----|
|----------------------------------------------------------------|
|----------------------------------------------------------------|

 |               |               |               |                
|----------------------------2-----------------------------------|
|--------------------0-------------------------------------------|
|----------------------------------------------------------------|
|----------------------------------------------------------------|

 |               |               |               |                
|0-------------------------0-------------------------------------|
|----------------------------------0-----------------------------|
|----------------------------------------------------------------|
|----------------------------------------------------------------|

 |               |               |               |                
|----------------------------------------------------------------|
|----------------------------------------------------------------|
|------3-------------------------3-------3-----------------------|
|----------------------------------------------------------------|

 |               |               |               |                
|----------------------------------------------------------------|
|----------------------------------------------------------------|
|------------3-------------------------3---------3---------------|
|----------------------------------------------------------------|

 |               |               |               |                
|----------------------------------------------------------------|
|----------------------------------------------------------------|
|------------------------------------------------------3---------|
|------------------1-------------------------1-------------------|

 |               |               |               |                
|----------------------------------------------------------------|
|----------------------------------------------------------------|
|----------------------------------------------------------------|
|------------------------1-----------------1-----------------3---|

 |               |               |               |                
|----------------------------------------------------------------|
|----------------------------------------------------------------|
|------------0-----------------1-------------------------1-------|
|----------------------------------------------------------------|

 |               |               |               |                
|----------------------------------------------------------------|
|----------------------------------------------------------------|
|------------------------------------1-----------------1---------|
|--1-------------------------------------------------------------|

 |               |               |               |                
|----------------------------------------------------------------|
|--------------------------0---------------1---------------------|
|--------3-------------------------------------------------------|
|----------------------------------------------------------------|

 |               |               |               |                
|----------------------------------------------------------------|
|----1-------------------------------------------1---------------|
|--------------1-------------------------------------------------|
|----------------------------------------------------------------|

 |               |               |               |                
|----------------------------------------------------------------|
|--1-----------------0-------------------------------------------|
|--------------------------------------3---------------1---------|
|----------------------------------------------------------------|

 |               |               |               |                
|----------------------------------------------------------------|
|----------------------------------------------------------------|
|------------------1-----------------------------------------3---|
|--------------------------1-------------------------------------|

 |               |               |               |                
|----------------------------------------------------------------|
|--------------------------------3-------------------------------|
|------------------------3---------------------------------------|
|----------------------------------------------------------------|

 |               |               |               |                
|----------------------------------------------------------------|
|--------------------------------------3-------------------------|
|----1-------------------------1---------------------------------|
|----------------------------------------------------------------|

 |               |               |               |                
|----------------------------------------------------------------|
|--------------------------------------------------------------0-|
|----------1---------------1-----------------3-------------------|
|----------------------------------------------------------------|

 |               |               |               |                
|----------------------------------------------------------------|
|----------------1-------------------------1---------------------|
|--------------------------------------------------1-------------|
|----------------------------------------------------------------|

 |               |               |               |                
|----------------------------------------------------------------|
|----------------------3-------------------------3---------------|
|--------------------------------------------------------3-------|
|----------------------------------------------------------------|

 |               |               |               |                
|----------------------------------------------------------------|
|----------------------------------------------------------------|
|----------------------------1-------------------------1-------3-|
|----------------------------------------------------------------|

 |               |               |               |                
|----------------------------------------------------------------|
|----------------0-----------------1-------------------------1---|
|----------------------------------------------------------------|
|----------------------------------------------------------------|

 |               |               |               |                
|----------------------------------------------------------------|
|----0-----------------------------------------------------------|
|----------------------3-----------------1-----------------------|
|----------------------------------------------------------------|

 |               |               |               |                
|----------------------------------------------------------------|
|----------------------------------------------------------------|
|--1-------1-----------------------------------3-----------------|
|----------------------------------------------------------------|

 |               |               |               |                
|----------------------------------------------------------------|
|----------------0-----------------------------------------------|
|--------3-------------------------------------------1-----------|
|----------------------------------1-----------------------------|

 |               |               |               |                
|----------------------------------------------------------------|
|----------------------------------------------------------------|
|----------------------------------------------------------------|
|----------------------------------------------------------------|

 |               |               |               |                
|----------------------------------------------------------------|
|----------------------------------------------------------------|
|----------------------------------------------------------------|
|----------------------------------------------1-----------------|

 |               |               |               |                
|----------------------------------------------------------------|
|------------------------------------1---------------------------|
|1-------------------------1-------------------------------------|
|----------------------------------------------------------------|

 |               |               |               |                
|----------------------------------------------------------------|
|------------------------------------------1---------------------|
|------1-------------------------1-------------------------------|
|----------------------------------------------------------------|

 |               |               |               |                
|----------------------------------------------------------------|
|------------------------------------------------1---------------|
|------------1-------------------------1-------------------------|
|----------------------------------------------------------------|

 |               |               |               |                
|----------------------------------------------------------------|
|----------------------------------------------------------------|
|------------------1---------------------------------------------|
|------------------------------------1-----------------3---------|

 |               |               |               |                
|----------------------------------------------------------------|
|----------------------------------------------------------------|
|--------0---------------1-------------------------1-------------|
|------------------------------------------------------------1---|

 |               |               |               |                
|----------------------------------------------------------------|
|----------------------------------------------------------------|
|----------------------------------------------------------------|
|----------------------------------------------------------------|





Comments


Popular Carpenters tabs & chords
Breaking Up Is Hard To Do Chords
Superstar 1 Chords
Sweet Sweet Smile 1 Chords
We've Only Just Begun Chords
Close To You 4 Tabs
Breaking Up Is Hard To Do Ukulele
Love Me For What I Am Ukulele
Merry Christmas Darling Ukulele
Sing Sing A Song Ukulele
What Are You Doing New Years Eve Ukulele


Song lyrics



↑ Back to top | Tablatures and chords are parodies/interpretations of the original songs. You may use it for private study, scholarship, research or language learning purposes only
© 2014 AZChords.com Contact us | Privacy policy | DMCA | Add/correct tabs | Request tabs | Top 50 tabs