» » »

Please Mr Postman Bass tabs (ver.1)

Artists:  A B C D E F G H I J K L M N O P Q R S T U V W X Y Z # 

Please Mr Postman Bass tabs (ver.1)

Carpenters
Rating:
0/5 (0 votes)

Hard to play? Try these video lessons and learn fast.
                CARPENTERS-Please Mr. Postman

TablEdited by Jan Bjorklund   
You are welcome to request for tabs!
Fingering and positions as suggested by TablEdit, please use common sense.


Tuning : E A D G 	Time Signature: 4/4

 |   |   |   |    |   |   |   |    |   |   |   |    |   |   |   |    
|----------6-5-4-|2-----2-------1-|2-----2-----2-1-|----------------|
|----------------|--------2---2---|--------2-------|4-----4-------2-|
|----------------|----------------|----------------|--------4---4---|
|----------------|----------------|----------------|----------------|

 |   |   |   |    |   |   |   |    |   |   |   |    |   |   |   |    
|----------------|----------------|----------------|----------------|
|4-----4---------|0-----0---------|0-----0-------0-|2-----2-------1-|
|--------4-0-2-4-|--------0-----4-|--------0-0-4---|--------2---2---|
|----------------|----------------|----------------|----------------|

 |   |   |   |    |   |   |   |    |   |   |   |    |   |   |   |    
|----------------|2-----2-------1-|2-----2-----2-1-|----------------|
|2-----2-----2-4-|--------2---2---|--------2-2-----|4-----4-------2-|
|--------2-2-----|----------------|----------------|--------4---4---|
|----------------|----------------|----------------|----------------|

 |   |   |   |    |   |   |   |    |   |   |   |    |   |   |   |    
|----------------|----------------|----------------|----------------|
|4-----4---------|0-----0---------|0-----0-----0---|2-----2-------1-|
|--------4-------|--------0---0-4-|----------0-----|--------2-------|
|----------------|----------------|----------------|----------------|

 |   |   |   |    |   |   |   |    |   |   |   |    |   |   |   |    
|--------------1-|2-----2-------1-|2-----2-----2-1-|----------------|
|2-----2---2-4---|--------2-------|--------2-------|4-----4-------2-|
|--------2-------|----------------|----------------|--------4-------|
|----------------|----------------|----------------|----------------|

 |   |   |   |    |   |   |   |    |   |   |   |    |   |   |   |    
|----------------|----------------|----------------|----------------|
|4-----4-----4---|0-----0---------|0-----0-----0---|2-----2-------1-|
|--------4-------|--------0-----4-|--------0-------|--------2---2---|
|----------------|----------------|----------------|----------------|

 |   |   |   |    |   |   |   |    |   |   |   |    |   |   |   |    
|--------------1-|2-----2-------1-|2-----2-----2-1-|----------------|
|2-----2---2-4---|--------2---2---|--------2-------|4-----4-------2-|
|--------2-------|----------------|----------------|--------4---4---|
|----------------|----------------|----------------|----------------|

 |   |   |   |    |   |   |   |    |   |   |   |    |   |   |   |    
|----------------|--------2---2---|----------------|----------------|
|4-----4---------|0-----0---------|0-----0-------0-|2-----2-------1-|
|--------4-0-2-4-|--------------4-|--------0-0-4---|--------2---2---|
|----------------|----------------|----------------|----------------|

 |   |   |   |    |   |   |   |    |   |   |   |    |   |   |   |    
|----------------|2-----2-------1-|2-----2-----2-1-|----------------|
|2-----2-----2-4-|--------2---2---|--------2-2-----|4-----4-------2-|
|--------2-2-----|----------------|----------------|--------4---4---|
|----------------|----------------|----------------|----------------|

 |   |   |   |    |   |   |   |    |   |   |   |    |   |   |   |    
|----------------|----------------|----------------|----------------|
|4-----4---------|0-----0---------|0-----------0---|2-----2-------1-|
|--------4-0-2-4-|--------0---0-4-|------0---0-----|--------2-------|
|----------------|----------------|----------------|----------------|

 |   |   |   |    |   |   |   |    |   |   |   |    |   |   |   |    
|----------------|2-----2---------|2-----2-----2-1-|----------------|
|2-----------2---|--------2-----2-|--------2-------|4-----4-------2-|
|------2-2-------|----------------|----------------|--------4---4---|
|----------------|----------------|----------------|----------------|

 |   |   |   |    |   |   |   |    |   |   |   |    |   |   |   |    
|----------------|--------2---2---|--------2-------|----------------|
|4-----4---------|0-----0---------|0-----0-----0---|2-----2-2-------|
|--------4-0-2-4-|--------------4-|----------0-----|----------------|
|----------------|----------------|----------------|----------------|

 |   |   |   |    |   |   |   |    |   |   |   |    |   |   |   |    
|----------------|----------------|----------------|----------------|
|2-----2-2-------|--------2-----2-|--------2-------|4-----4-------2-|
|----------------|0-----4-----4---|0-----4-----4---|--------4---4---|
|----------------|----------------|----------------|----------------|

 |   |   |   |    |   |   |   |    |   |   |   |    |   |   |   |    
|----------------|----------------|----------------|----------------|
|4-----4-----4---|0-----0---------|0-----0-----4---|2---------------|
|--------4-------|--------0---0-4-|--------0-------|----------------|
|----------------|----------------|----------------|----------------|

 |   |   |   |    |   |   |   |    |   |   |   |    |   |   |   |    
|----------------|----------------|----------------|----------------|
|----------------|--------2-----2-|--------2-------|4-----4-------2-|
|----------------|0-----4-----4---|0-----4-----4---|--------4---4---|
|----------------|----------------|----------------|----------------|

 |   |   |   |    |   |   |   |    |   |   |   |    |   |   |   |    
|----------------|----------------|----------------|----------------|
|4---4-------4---|0---0-----------|0---0-------4---|2---------------|
|--------4-------|--------0---0-4-|--------0-------|----------------|
|----------------|----------------|----------------|----------------|

 |   |   |   |    |   |   |   |    |   |   |   |    |   |   |   |    
|----------------|----------------|----------------|----------------|
|----------------|--------2-----2-|--------2-------|4-----4-------2-|
|----------------|0-----4-----4---|0-----4-----4---|--------4---4---|
|----------------|----------------|----------------|----------------|

 |   |   |   |    |   |   |   |    |   |   |   |    |   |   |   |    
|----------------|----------------|----------------|----------------|
|4-----4-----4---|0-----0---------|0-----0-----4---|2-2-2-2-2-2-2-2-|
|--------4-------|--------0---0-4-|--------0-------|----------------|
|----------------|----------------|----------------|----------------|

 |   |   |   |    |   |   |   |    |   |   |   |    |   |   |   |    
|----------------|----------------|----------------|----------------|
|2-2-2-2-2-2-2-2-|--------2-----2-|--------2-------|4-----4-------2-|
|----------------|0-----4-----4---|0-----4-----4---|--------4---4---|
|----------------|----------------|----------------|----------------|

 |   |   |   |    |   |   |   |    |   |   |   |    |   |   |   |    
|----------------|----------------|----------------|----------------|
|4---4-------4---|0---0-----------|0---0-------4---|2---------------|
|--------4-------|--------0---0-4-|--------0-------|----------------|
|----------------|----------------|----------------|----------------|

 |   |   |   |    |   |   |   |    |   |   |   |    |   |   |   |    
|----------------|----------------|----------------|----------------|
|----------------|--------2-----2-|--------2-------|4-----4-------2-|
|----------------|0-----4-----4---|0-----4-----4---|--------4---4---|
|----------------|----------------|----------------|----------------|

 |   |   |   |    |   |   |   |    |   |   |   |    |   |   |   |    
|----------------|----------------|----------------|----------------|
|4-----4-----4---|0-----0---------|0-----0-----4---|2-2-2-2-2-2-2-2-|
|--------4-------|--------0---0-4-|--------0-------|----------------|
|----------------|----------------|----------------|----------------|

 |   |   |   |    |   |   |   |    
|----------------|----------------|
|2-2-2-2-2-2-2-2-|----------------|
|----------------|----------------|
|----------------|----------------|
            
Hard to play? Try these video lessons and learn fast. | Correct




comments powered by Disqus
↑ Back to top | Tablatures and chords are parodies/interpretations of the original songs. You may use it for private study, scholarship, research or language learning purposes only