» » »

Carpathian, Who The Fuck Taught You Snaps? Tabs (ver.1)

Artists:  A B C D E F G H I J K L M N O P Q R S T U V W X Y Z # 

Who The Fuck Taught You Snaps? Tabs (ver.1)

Carpathian Tabs
 Rating:
4/5 (4 votes)
Who The Fuck Taught You Snaps? lessons Tabs too difficult? Try these video lessons and learn fast
                Who the f**k taught you snaps?

Intro part 1 x2
Db ------------------------------------------------------|
Ab ------------------------------------------------------|
E  ------------------------------------------------------|
B  -1p0-00-0-00-0--1p0------------1p0-00-0-00-0-5-5--3-3-|
Gb -1p0-00-0-00-0--1p0------------1p0-00-0-00-0-6-6--5-5-|
B  -1p0-00-0-00-0--1p0-00-0-00-0--1p0-00-0-00-0-----0----|
        ..   ..        ..   ..        ..   ..       .
Intro part 2 x2
Db ----------------------------------------------------|
Ab ----------------------------------------------------|
E  ----------------------------------------------------|
B  -------------------------------------------5-5--3-3-|
Gb -0-0--0-00-00--0-0--0-00-00--0-0--0-00-00--6-6--5-5-|
B  -0-0--0-00-00--0-0--0-00-00--0-0--0-00-00------0----|
    . .  . .. ..  . .  . .. ..  . .  . .. ..      .

Verse
Db -----------------------------------------------|
Ab -----------------------------------------------|
E  --10-10-10-10---10-10-10-10---10-10-10-9-9-5-5-|
B  -0-x--x--x--x--0-x--x--x--x--8-x--x--x-x-x-x-x-|
Gb -0-8--8--8--8--0-8--8--8--8--8-8--8--8-7-7-3-3-|
B  -0-------------0-------------8-----------------|

Verse cont.
Db -------------------------------------------------|
Ab -------------------------------------------------|
E  --10-10-10-10---10-10-10-10---10-10-10-12-12-9-9-|
B  -0-x--x--x--x--0-x--x--x--x--8-x--x--x--x--x-x-x-|
Gb -0-8--8--8--8--0-8--8--8--8--8-8--8--8-10-10-7-7-|
B  -0-------------0-------------8-------------------|

Verse
Db -----------------------------------------|
Ab -----------------------------------------|
E  ---7-7-7-7----7-7-7-7---10-10-10-9-9-5-5-|
B  -0-x-x-x-x--0-x-x-x-x--8-x--x--x-x-x-x-x-|
Gb -0-5-5-5-5--0-5-5-5-5--8-8--8--8-7-7-3-3-|
B  -0----------0----------8-----------------|

Verse cont.
Db -------------------------------------------------|
Ab -------------------------------------------------|
E  --10-10-10-10---10-10-10-10---10-10-10-12-12-9-9-|
B  -0-x--x--x--x--0-x--x--x--x--8-x--x--x--x--x-x-x-|
Gb -0-8--8--8--8--0-8--8--8--8--8-8--8--8-10-10-7-7-|
B  -0-------------0-------------8-------------------|

Bridge x 4
Db ----------------------------------------|
Ab ----------------------------------------|
E  ----------------------------------------|
B  -0-00-1-0-00-1-0-131-0--00-1-0-00-1-----|
Gb -0-00-1-0-00-1-0-131-0--00-1-0-00-1-1-3-|
B  -0-00-1-0-00-1-0-131-0--00-1-0-00-1-----|
    . ..   . ..   . ... .  ..   . ..
Chorus x2
Db --------------------------------------------------------------------------|
Ab --------------------------------------------------------------------------|
E  -----10------10-------------------------------10------10------------------|
B  -8-8--8--7-7--7-0-------------------------8-8--8--7-7--7-0-0-00-00-0-00-0-|
Gb -8-8--8--8-8--8-0---5--7--8--10-8---7--8--8-8--8--8-8--8-0-0-00-00-0-00-0-|
B  -8-8--8--7-7--7-0--0--0--0--0--0--0--0----8-8--8--7-7--7-0-0-00-00-0-00-0-|
                      .  .  .  .  .  .  .                   . . .. .. . .. .
Repeat Verse

Outro part 1
Db --------------------------------------------------------|
Ab --------------------------------------------------------|
E  -----10------10-------------------10------10------------|
B  -8-8--8--7-7--7--0-0-0-0-0-0--8-8--8--7-7--7-0-0-0-0-0--|(octaves in there)
Gb -8-8--8--8-8--8--0-0-0-0-0-0--8-8--8--8-8--8-0-0-0-0-0--|
B  -8-8--8--7-7--7--0-0-0-0-0-0--8-8--8--7-7--7-0-0-0-0-0--|

Bridge x 4

thats it, not note for note, but no point, its basic as...
            
Submit corrections

comments powered by Disqus
↑ Back to top | Carpathian Tabs for Who The Fuck Taught You Snaps?. Lyrics for acoustic guitar and electric guitar. Tablatures and chords are parodies/interpretations of the original songs. You may use it for private study, scholarship, research or language learning purposes only