» » »

Carpathian, Love Song Tabs (ver.1)

Artists:  A B C D E F G H I J K L M N O P Q R S T U V W X Y Z # 

Love Song Tabs (ver.1)

Carpathian Tabs
Rating:
4/5 (1 vote)
Love Song lessons Tabs too difficult? Try these video lessons and learn fast
                LOVE SONG

palm mute=.
harmonic=*
Intro (don’t play harmonic last time through)
C#----------------------------------------------------|
G#----------------------------------------------------|
E ----------------------------------------------------|
B -0000-00-0-33--0000-00-0-22--000-00-0-33-2-3—2-5----|
F#-0000-00-0-55--0000-00-0-33--000-00-0-55-3-3-3-3-3*-|
B -0000-00-0-----0000-00-0-----000-00-0---------------|
   .... .. .     .... .. .     ... .. .

Verse 1
C#--------------------------------------------------------------------------|
G#--------------------------------------------------------------------------|
E -10-10-10-10-10-10--9-9-9------10-10-10-10-10-10/12-12-14-14-10-10-10-9-9-|
B –-x--x--x--x--x--x--x-x-x-(x2)--x--x--x--x--x--x--x--x--x--x--x--x--x-x-x-|
F#--8--8--8--8--8--8--7-7-7-------8--8--8--8--8—-8/10-10-12-12--8--8—-8-7-7-|
B --------------------------------------------------------------------------|

Bridge
C#--------------------------------------------------------------------------|
G#--------------------------------------------------------------------------|
E --------------------------------------------------------------------------|
B ------------3-3-3-------------3-3-3------------3-3-3----------------------|
F#------------1-1-1-------------1-1-1------------1-1-1------------111-------|
B -000-00-000--------000-00-000-------000-00-000-------000-00-000-----333-5-|

Bridge cont
C#--------------------------------------------------------------------------|
G#--------------------------------------------------------------------------|
E --------------------------------------------------------------------------|
B -000-00-000-3-3-3--000-00-000-3-3-3-000-00-000-3-3-3-000-00-000-----------|
F#-000-00-000-1-1-1--000-00-000-1-1-1-000-00-000-1-1-1-000-00-000-111-------|
B -000-00-000--------000-00-000-------000-00-000-------000-00-000-----333-5-|
   ... .. ...        ... .. ...       ... .. ...       ... .. ...
Verse 2
C#---------------------------------------------------|
G#---------------------------------------------------|
E ---------------------------------------------------|
B -0--0-0-0-0-0-0-----0-0--0h3--3-------------7-7-—5-|
F#-0--0-0-0-0-0-0-----0-0--0h3--5--5-5-5-5-5--8-8--7-|
B -0--0-0-0-0-0-0-1p0-0-0--0h3-----0-0-0-0-0---------|
      . . . . . .     . .          . . . . .

Haven’t got the second part of verse yet

Bridge 2
C#----------|
G#----------|
E ----------|
B -1~-4~-3~-|
F#-1~-4~-3~-|
B -1~-4~-3~-|

Breakdown
C#------------------------------|
G#------------------------------|
E ------------------------------|
B ------------------------------|
F#------------------------------|
B -0-0-0--0-0-00-00—3-3-3-1-1-1-|

Breakdown cont
C#------------------------------|
G#------------------------------|
E ------------------------------|
B -0-0-0--0-0-00-00-------------|
F#-0-0-0--0-0-00-00-------------|
B -0-0-0--0-0-00-00—3-3-3-1-1-1-|
   . . .  . . .. ..

Interlude
C#-------------------------------------------------------------------|
G#-------------------------------------------------------------------|
E -------------------------------------------------------------------|
B -0-----------------------------------------------------------------|
F#-0-0-0-0-0-0-0-0-0-0-----0-0---------0-0-0-----------0-0--0-0-0----|
B -0-0-0-0-0-0-0-0-0-0-0-0-0-0-3*-0-0--0-0-0--0-0-0-3*-0-0--0-0-0----|
     . . . . . . . . .     . .         . . .           . .  . . .

Bridge 3
C#----------------------------|
G#----------------------------|
E -10-10--9-9------10------10-|
B --x--x--x-x--8-8--8--7-7--7-|
F#--8--8--7-7--8-8--8--8-8--8-|
B -------------8-8--8--7-7--7-|

Verse 1
Bridge
            
Submit corrections

comments powered by Disqus
↑ Back to top | Carpathian Tabs for Love Song. Lyrics for acoustic guitar and electric guitar. Tablatures and chords are parodies/interpretations of the original songs. You may use it for private study, scholarship, research or language learning purposes only