» » »

Love Song Bass tabs (ver.1)

Artists:  A B C D E F G H I J K L M N O P Q R S T U V W X Y Z # 

Love Song Bass tabs (ver.1)

Carpathian
Rating:
0/5 (0 votes)

Hard to play? Try these video lessons and learn fast.
                Band:		CARPATHIAN
Album/EP:		NOTHING TO LOSE 
Label:		RESIST RECORDS
Bassist:		CHRIS FARMER
Tuning:		Drop/Low B (EF#EB)

INTRO Part 1 x 4 (0.00)

G|------------------------------------------------------|
D|------------------------------------------------------|
A|-----------55-----------33-----------55-3-3-3-3-------|
E|-0000-00-0----0000-00-0----0000-00-0------------------|

VERSE 1 x 1

G|------------------------------------------|
D|------------------------------------------|
A|------------------------------------------|
E|-8-8-8-8-8-8--7-7-7--8-8-8-8-8-8--7-7-7---|

G|---------------------------------------|
D|---------------------------------------|
A|---------------------------------------|
E|-8-8-8-8-8-8/10-10-12-12--8-8-8-7-7----|

BRIDGE 1 x 2

G|---------------------------------------------------------------------|
D|---------------------------------------------------------------------|
A|-----------1-1-1----------1-1-1----------1-1-1----------1-1-1--------|
E|-000-00-000-----000-00-000-----000-00-000-----000-00-000-----3-3-3-5-|

VERSE 2 Part 1 x 2

G|-------------------------------------------------|
D|-------------------------------------------------|
A|----------------------------5------------8-8--7--|
E|-0--0-0-0-0-0-0-1p0-0-0-0h3---0-0-0-0-0-0--------|

VERE Part 2 x 2

G|----------------------------------------------|
D|----------------------------------------------|
A|----------------------------------------------|
E|-0-0-0-0-0-0—1p0--0-0—0h3--0-0-0-0-0-0-0-0----|

BRIDGE 2 x 1

G|----------------|
D|----------------|
A|----------------|
E|--1~--4~--3~----|

BREAKDOWN Part 1 x 12

G|----------------------------------|
D|----------------------------------|
A|----------------------------------|
E|-0-0-0--0-0-00-00--3-3-3-1-1-1----|

BREAKDOWN Part 2 x 1

G|--------------|
D|--------------|
A|--------------|
E|--000--000----|

VERSE 1 x 1

G|------------------------------------------|
D|------------------------------------------|
A|------------------------------------------|
E|-8-8-8-8-8-8--7-7-7--8-8-8-8-8-8--7-7-7---|

G|---------------------------------------|
D|---------------------------------------|
A|---------------------------------------|
E|-8-8-8-8-8-8/10-10-12-12--8-8-8-7-7----|

BRIDGE 1 x 4

G|---------------------------------------------------------------------|
D|---------------------------------------------------------------------|
A|-----------1-1-1----------1-1-1----------1-1-1----------1-1-1--------|
E|-000-00-000-----000-00-000-----000-00-000-----000-00-000-----3-3-3-5-|
            
Hard to play? Try these video lessons and learn fast. | Correct




comments powered by Disqus
↑ Back to top | Tablatures and chords are parodies/interpretations of the original songs. You may use it for private study, scholarship, research or language learning purposes only