» » »

Kiss The Rings Bass tabs (ver.1)

Artists:  A B C D E F G H I J K L M N O P Q R S T U V W X Y Z # 

Kiss The Rings Bass tabs (ver.1)

Carpathian
Rating:
0/5 (0 votes)

Hard to play? Try these video lessons and learn fast.
                Carpathian - Kiss The Rings

Intro x2
F-----------------------------------|----------------------------------|----|      |----|
C-----------------------------------|----------------------------------|----| pick |----|
G-----------3-5---------------------|-----------3-5--------------------|----|scr*pe|----|
C-00-0-0-0-------00-0-0-0-0000-0000-|-00-0-0-0------88888888--55555555-|-0~-|      |-0~-|

Verse x4
F-----------------------------------------------------|
C-----------------------------------------------------|
G-----5---5---3---8---7---5h7-------------------------|
C-0-0---0---0---0---0---0------0-8----------0-3-------|

Verse Part 2 x2
F-----------------------|
C-----------------------|
G------------1-11-------|
C-0-000-000--------3-33-|

Breakdown  x2                          end with
F--------------------------------------|-11~-|
C--------------------------------------|-----|
G--------------------------------3---1-|-----|
C-000000--0-1-0-1-3-1--000000--0---0---|-----|SLIDE

Breakdown cont x 4                                  end with
F--------------------------------------------------|-------|
C--------------------------------------------------|-------|
G------------------------------------------1-1-3-1-|-------|
C-0-0-0-0-0-0---0-1-0-1-3-1---0-0-0-0-0-0----------|-0-0-0-|

Verse
F---------------------------------------------------|
C---------------------------------------------------|
G-----5---5---3---8---7---5h7-----------------------|
C-0-0---0---0---0---0---0------0-8----------3-------|

Outro
F--------------------------|
C--------------------------|
G----------1-11------------|
C-0-00-00--------3-33-2-22-|
            
Hard to play? Try these video lessons and learn fast. | Correct




comments powered by Disqus
↑ Back to top | Tablatures and chords are parodies/interpretations of the original songs. You may use it for private study, scholarship, research or language learning purposes only