» » »

Kiss The Rings Tabs (ver.1)

Artists:  A B C D E F G H I J K L M N O P Q R S T U V W X Y Z # 

Kiss The Rings Tabs (ver.1)

Carpathian
Rating:
4/5 (1 vote)

Hard to play? Try these video lessons and learn fast.
                Carpathian
Kiss the rings

. = mute
* = harmonic

Intro x2
D-----------------------------------|----------------------------------|----|
A-----------------------------------|----------------------------------|----|
F-----------5-7---------------------|-----------5-7--------------------|----|
C-00-0-0-0--x-x--00-0-0-0-0000-0000-|-00-0-0-0--x-x--------------------|-0~-| pick
G-00-0-0-0--3-5--00-0-0-0-0000-0000-|-00-0-0-0--3-5--------------------|-0~-|scr*pe
C-00-0-0-0-------00-0-0-0-0000-0000-|-00-0-0-0------88888888--55555555-|-0~-|
  .. . . .       .. . . . .... ....   .. . . .

Verse
D-----------------------------------------------------|
A-----------------------------------------------------|
F-----------------------------------------------------|
C------------------------------0-8-10-8h10--0-3-5-3h5-|
G-----5---5---3---8---7---5h7--0-8----------0-3-------|
C-0-0---0---0---0---0---0------0-8----------0-3-------|
  . .   .   .   .   .   .      .            .

Guitar 2 later on...over guitar one part... x2
D-----------------------|
A-----------------------|
F------------3-33-------|
C-0-000-000--3-33--3-33-|
G-0-000-000--1-11--3-33-|
C-0-000-000--------3-33-|
  . ... ...

Breakdown  x2                          end with
D--------------------------------------|-----|
A--------------------------------------|--8~-|
F--------------------------------------|-11~-|
C-000000--0-1-0-1-3-1--000000--0-5-0-3-|-----|
G-000000--0-1-0-1-3-1--000000--0-3-0-1-|-----|
C-000000--0-1-0-1-3-1--000000--0---0---|-----|
  ......  . . . . . .  ......  .   .

Breakdown cont. x 2                                  end with
D---------------------------------------------------|-------|
A---------------------------------------------------|-------|
F---------------------------------------------------|-------|
C-0-0-0-0-0-0---0-1-0-1-3-1---0-0-0-0-0-0-----------|-0-0-0-|
G-0-0-0-0-0-0---0-1-0-1-3-1---0-0-0-0-0-0--1-1-3*-1-|-0-0-0-|
C-0-0-0-0-0-0---0-1-0-1-3-1---0-0-0-0-0-0-----------|-0-0-0-|
  . . . . . .   . . . . . .   . . . . . .             . . .

Verse
D---------------------------------------------------|
A---------------------------------------------------|
F---------------------------------------------------|
C------------------------------0-8-10-8h10--3-5-3h5-|
G-----5---5---3---8---7---5h7--0-8----------3-------|
C-0-0---0---0---0---0---0------0-8----------3-------|
  . .   .   .   .   .   .      .

Outro Guitar 1
D--------------------------|
A--------------------------|
F----------3-33------------|
C-0-00-00--3-33--3-33-2-22-|
G-0-00-00--1-11--3-33-3-33-|
C-0-00-00--------3-33-2-22-|


Outro Guitar 2
|------------------------------------------------------------------------------|
|------------------------------------------------------------------------------|
|--10-9-7---7-9--10-9-7---7-9--10-9-7---7-9--10-9-7---7-9—12-10-9-10-9----9-10-|
|--------10------------10-------------10------------10-----------------10------|
|------------------------------------------------------------------------------|
|------------------------------------------------------------------------------|

|------------------------|
|---13-------------------|
|------15-14-15-14-12-10-|
|------------------------|
|------------------------|
|------------------------|
            
Hard to play? Try these video lessons and learn fast. | Correct




comments powered by Disqus
↑ Back to top | Tablatures and chords are parodies/interpretations of the original songs. You may use it for private study, scholarship, research or language learning purposes only