» » »

Trio' Pain Tabs (ver.1)

Artists:  A B C D E F G H I J K L M N O P Q R S T U V W X Y Z # 

Trio' Pain Tabs (ver.1)

Carolines Spine
Rating:
0/5 (0 votes)

Hard to play? Try these video lessons and learn fast.
                
TRIO' PAIN 
As recorded by Carolines Spine 
(From the 1997 Album MONSOON, Hollywood Records) 



Words and Music by Jimmy Newquist

 

Gtr I (D A D G B E) - 'Mark Haugh'

(Note: There are two versions of the chorus, because after the first time it's played the riff changes.) 

Intro
      PM--------|       PM------|
|---------------------------------------------------------------------|
|---------------------------------------------------------------------|
|---------------------------------------------------------------------|
|-0-0---------------0-0-----------------------------------------------|
|-0-0-0-0-0-0-0-0-0-0-0-0-0-0-0-0-0-5\-4-0-0-7\-4-/5------------------|
|-0-0-0-0-0-0-0-0-0-0-0-0-0-0-0-0-0-----------------------------------|
|
|---------------------------------------------------------------------|
|---------------------------------------------------------------------|
|---------------------------------------------------------------------|
|-0---0-3-3-2-2-----0---0-3-3-2-2-0----0-3-3-2--2--0---0---3-3-2-2----|
|-0---0-3-3-2-2-----0---0-3-3-2-2-0----0-3-3-2--2--0---0---3-3-2-2----|
|-0---0-3-3-2-2-----0---0-3-3-2-2-0----0-3-3-2--2--0---0---3-3-2-2----|
|
|---------------------------------------------------------------------|
|------------------------------------------------------6b--3-5p3-0----|
|---------------------------------------------------------------------|
|---0-0-3-3-2-2---0-0-3-3-2-2---0-0-3--3-2-2----0--2-3----------------|
|---0-0-3-3-2-2---0-0-3-3-2-2---0-0-3--3-2-2----0--2-3----------------|
|---0-0-3-3-2-2---0-0-3-3-2-2---0-0-3--3-2-2----0--2-3----------------|


Verse               8x
||------------------||
||o----------------o||
||------------------||
||--0-0-3-3-2-2-----||
||o-0-0-3-3-2-2----o||
||--0-0-3-3-2-2-----||

Chorus Version I
|-----------------------------------------------------------------------------|
|-----------------------------------------------------------------------------|
|-----------------------------------------------------------------------------|
|-5-5-5-5-5-5-5-5-7-7-7-7-7-7-7-7-5-5-5-5-5-5-5-5-7---7-7---7-----------------|
|-5-5-5-5-5-5-5-5-7-7-7-7-7-7-7-7-5-5-5-5-5-5-5-5-7---7-7---7-5p4p0-0h7\-4-/5-|
|-5-5-5-5-5-5-5-5-7-7-7-7-7-7-7-7-5-5-5-5-5-5-5-5-7---7-7---7-----------------|
|
|-----------------------------------------------------------------------------|
|-----------------------------------------------------------------------------|
|-----------------------------------------------------------------------------|
|-0---0-3-3-2-2-0---0-3-3-2-2-0---0-3-3-2-2-0-0---0-3b-0-2b-------------------|
|-0---0-3-3-2-2-0---0-3-3-2-2-0---0-3-3-2-2-0-0-------------------------------|
|-0---0-3-3-2-2-0---0-3-3-2-2-0---0-3-3-2-2-0-0-------------------------------|


Verse                8x
||-------------------||
||o-----------------o||
||-------------------||
||--0--0-3-3-2-2-----||
||o-0--0-3-3-2-2----o||
||--0--0-3-3-2-2-----||


Chorus Version II                                                4x
|----------------------------------------------------------------||
|---------------------------------------------------------------o||
|----------------------------------------------------------------||
|-5--5---5--5--5--5--5--5--5--5--7--7--7--7--7--7--7--7--7--7----||
|-5--5---5--5--5--5--5--5--5--5--7--7--7--7--7--7--7--7--7--7---o||
|-5--5---5--5--5--5--5--5--5--5--7--7--7--7--7--7--7--7--7--7----||
|
|                                                                4x
|----------------------------------------------------------------||
|---------------------------------------------------------------o||
|----------------------------------------------------------------||
|-8----3---------------------------------------------------------||
|-8----3--------------------------------------------------------o||
|-8----3---------------------------------------------------------||

Breakdown
|-------------------------|-------------------------|-------------------------|
|-------7-----------------|-------7-----------------|-------7-----------------|
|-5h7------5--3h-5--3--7--|-5h7------5--3h5--3--7---|-5h7------5--3h5--3--7---|
|-------------------------|-------------------------|-------------------------|
|-------------------------|-------------------------|-------------------------|
|-------------------------|-------------------------|-------------------------|


Pre-Verse            4x
||-------------------||
||o-----------------o||
||-------------------||
||--0--0-3-3-2-2-----||
||o-0--0-3-3-2-2----o||
||--0--0-3-3-2-2-----||

Verse
|--------------------------------------------------------|
|--------------------------------------------------------|
|--------------------------------------------------------|
|-0--0-3-3-2-2-0--0-3-3-2-2-0--0-3-3-2-2-0---0-3-3-2-2---|
|-0--0-3-3-2-2-0--0-3-3-2-2-0--0-3-3-2-2-0---0-3-3-2-2---|
|-0--0-3-3-2-2-0--0-3-3-2-2-0--0-3-3-2-2-0---0-3-3-2-2---|
|
|--------------------------------------------------------|
|--------------------------------------------------------|
|--------------------------------------------------------|
|-0--0-3-3-2-2-0--0-3-3-2-2-0--0-3-3-2-2-0-0-0-0-2-2-3-3-|
|-0--0-3-3-2-2-0--0-3-3-2-2-0--0-3-3-2-2-0-0-0-0-2-2-3-3-|
|-0--0-3-3-2-2-0--0-3-3-2-2-0--0-3-3-2-2-0-0-0-0-2-2-3-3-|


Chorus Version II                                                4x
||---------------------------------------------------------------||
||o-------------------------------------------------------------o||
||---------------------------------------------------------------||
||--5--5--5--5--5--5--5--5--5--5--7--7--7--7--7--7--7--7--7--7---||
||o-5--5--5--5--5--5--5--5--5--5--7--7--7--7--7--7--7--7--7--7--o||
||--5--5--5--5--5--5--5--5--5--5--7--7--7--7--7--7--7--7--7--7---||
|
|                                                                4x
||---------------------------------------------------------------||
||o-------------------------------------------------------------o||
||---------------------------------------------------------------||
||--8--3---------------------------------------------------------||
||o-8--3--------------------------------------------------------o||
||--8--3---------------------------------------------------------||

Breakdown
|-------------------------|-------------------------|-------------------------|
|-------7-----------------|-------7-----------------|-------7-----------------|
|-5h7-----5--3h-5--3--7---|-5h7-----5--3h5--3--7----|-5h7------5--3h5--3--7---|
|-------------------------|-------------------------|-------------------------|
|-------------------------|-------------------------|-------------------------|
|-------------------------|-------------------------|-------------------------|


Outro                                         4x
||--------------------------------------------||
||--------------------------------------------||
||--------------------------------------------||
||--0--0-3-3-2-2-0--0-3-3-2-2-----------------||
||--0--0-3-3-2-2-0--0-3-3-2-2-5p4p0-0h7\-4-/5-||
||--0--0-3-3-2-2-0--0-3-3-2-2-----------------||




-----------------------------------------------------------------------------

| /  slide up
| \  slide down
| h  hammer-on
| p  pull-off
| ~  vibrato
| +  harmonic
| x  Mute note
            
Hard to play? Try these video lessons and learn fast. | Correct




comments powered by Disqus
↑ Back to top | Tablatures and chords are parodies/interpretations of the original songs. You may use it for private study, scholarship, research or language learning purposes only