» » »

Carolines Spine, Trio' Pain Bass tabs (ver.2)

Artists:  A B C D E F G H I J K L M N O P Q R S T U V W X Y Z # 

Trio' Pain Bass tabs (ver.2)

Carolines Spine Tabs
Rating:
0/5 (0 votes)
Trio' Pain lessons Tabs too difficult? Try these video lessons and learn fast
                Caroline's Spine- Trio Pain (from the album Monsoon)
[EADG tuning]
This song is fun to play and pretty easy, indicates
song parts, h=hammer, p=pull off x=muted note
Intro Pt.
G|-------------------------------------------------
D|-------------------------------------------------
A|-------------------------------------------------
E|--3--3---x-x-x-x-x-x---3--3----x-x-x-x-x-x-------
Pt.
G|-------------------------------------------------
D|-------------------------------------------------
A|-------------------------------------------------
E|--0--0---3-3--2-2----0--0---3-3--2-2-------------

Verse (slight variation of intro riff B)
G|-------------------------------------------------
D|-------------------------------------------------
A|-------------------------------------------------
E|--0--0---3-3--2-2---0-0--0---3-3--2-2------------

Chorus
G|-------------------------------------------------
D|-------------------------------------------------
A|-------------------------------------------------
E|--5-5-5-5---5-5-5-5----7-7-7-7---7-7-7-7---------

Post-Chorus (right after 'Where will we be tomorrow')
Pt. a couple times
G|-------------------------------------------------
D|-----5----7-5-4----------------------------------
A|-------------------------------------------------
E|-------------------------------------------------
Pt.repeat intro riff a couple times:
G|-------------------------------------------------
D|-------------------------------------------------
A|-------------------------------------------------
E|--0--0---3-3--2-2-----0--0---3-3--2-2------------

Pt.PC end fill(guitar is solo on this but it sounds
cool on the bass)
G|-------------------------------------------------
D|-------------------------------------------------
A|---------4h5p4---0--7--4-------------------------
E|---0--0------------------------------------------
Then play verse and chorus again,then post-chorus A,
then the outro,which is post-chorus parts BCBCBCBC
then finish with an open E.
******************************************************
This is a great song from a great, though little known
band.Hope you all like it! 
            
Submit corrections

comments powered by Disqus
↑ Back to top | Carolines Spine Bass for Trio' Pain. Lyrics for acoustic guitar and electric guitar. Tablatures and chords are parodies/interpretations of the original songs. You may use it for private study, scholarship, research or language learning purposes only