» » »

Carolines Spine, Sullivan Bass tabs (ver.1)

Artists:  A B C D E F G H I J K L M N O P Q R S T U V W X Y Z # 

Sullivan Bass tabs (ver.1)

Carolines Spine Tabs
 Rating:
4/5 (4 votes)
Sullivan lessons Tabs too difficult? Try these video lessons and learn fast
                -------------------------------------------------------------------------------
			  Sullivan - Carolines Spine
-------------------------------------------------------------------------------


Tuning: Standard

INTRO
G|--------------------------------------------------|
D|--------------------------------------------------|
A|---------------------------------3---3--3--3-3----|
E|--0---0--0--0-0--3---3--3--3-3--------------------|

VERSE 
G|--------------------------------------------------------------|
D|--------------------------------------------------------------|
A|-----------------------------------------------3---3--3--3-3--|
E|--0---0--0--0-0--0---0--0--0-0--3---3--3--3-3-----------------|

G|--------------------------------------------------------------|
D|--------------------------------------------------------------|
A|------------------------------------------------3---3--3--3-3-|
E|--0---0--0--0-0--3---3--3--3-3---5---5--5--5-5----------------|LAST TIME
PLAY INTRO

VERSE 2 & 3
G|--------------------------------------------------------------|
D|--------------------------------------------------------------|
A|-----------------------------------------------3---3--3--3-3--|
E|--0---0--0--0-0--0---0--0--0-0--3---3--3--3-3-----------------|

G|--------------------------------------------------------------|
D|--------------------------------------------------------------|
A|--------------------------------------------------------------|
E|--0---0--0--0-0--3---3--3--3-3---5---5--5--5-5--5---5--5--5-5-|LAST TIME

CHORUS
G|------------------------------------------------------------------|
D|------------------------------------------------------------------|
A|-----------------5---5--5--5-5---3---3--3--3-3--3---3--3--3-3-----|
E|--0---0--0--0-0---------------------------------------------------|X3

G|------------------------------------------------------------|
D|------------------------------------------------------------|
A|----------------5---5--5--5-5---------------3---3--3--3-3---|
E|--0---0--0--0-0---------------5---5--5--5-5-----------------|X1 
THEN 1 MORE OF THE FIRST PART 

BREAK DOWN AFTER 2ND CHORUS
G|-------------------|  |--------------------|  |-----------------------|
D|-------------------|  |--------------------|  |-----------------------|
A|----3~----3~-5--3--|  |--------------3-3---|  |-----------------------|
E|-0~----0~----------|X2|-0---0---3--3-------|X3|-0--3--3--3H5-3H5-3H5--|

THAT'S ALL 
            
Submit corrections

comments powered by Disqus
↑ Back to top | Carolines Spine Bass for Sullivan. Lyrics for acoustic guitar and electric guitar. Tablatures and chords are parodies/interpretations of the original songs. You may use it for private study, scholarship, research or language learning purposes only