>
 >
The Diseased And The Poisoned

The Diseased And The Poisoned Guitar Tabs

Carnifex - The Diseased And The Poisoned chords, tabs, tablatures, lyrics

Guitar lessons | Add/correct | Request | Top 50 tabs Artists:  A B C D E F G H I J K L M N O P Q R S T U V W X Y Z 0-9

The Diseased And The Poisoned Guitar Tabs – Carnifex

CD, Sheet music, Poster

Do you like The Diseased And The Poisoned? Share with your friends now
Tabs
Song; The Diseased and the Poisoned


Tuning: Drop A (A-E-A-D-F#-B)


 Key
 ________________________
| h = hammer on          |
| p = pull off           |
| * = natural harmonic   |
| / = slide              |
| pm* = palm mute        |
| _ = silence string     |
| ~ = let ring           |
| ~~~ = vivrato          |
| " = trem pick          |
|________________________|

*Note: The part in the Intro that's kinda hard... yeah you can play
those as minor 3rd pull-off's if you want. But they pick/palm mute it.

Intro
|-----------------------------------------------|
|-----------------------------------------------|
|-----------------------------------------------|
|-------------*---------------------------------|
|-------2-----5-----4-----------2-----1-2-3-5-~-|
|-1p0-0---0-0---0-0---0-0-1p0-0---0-0-1-2-3-5-~-|
pm    *   * *   * *   * *     *   * * * * *

|------------------------------------------------------| 
|------------------------------------------------------|
|-------------*----------------------------------------| 
|-------------5-*--------------------------------------|
|-------2-------5----4-----5-----9------14------13-----|
|-1p0-0---0-0-----0----0-0---0-0---0-0-----0-0----0-0-| (repeat Intro)
pm    *   * *     *    * *   * *   * *     * *    * *


(gtr. I)
|-------------------------------|
|----------------------------|
|----------------------------|
|--------------12-----11-----|
|-9-----13-------------------|
|---0-0----0-0---0-0-----0-0-|     \
pm  * *    * *   * *     * *        \
                                     \
                                      \
(gtr. II)                             /
|---------------------------|        /
|---------------------------|       /
|---------------------------|      /
|-7-----11-----15-----14----|
|---------------------------|
|---0-0----0-0----0-0---0-0-|
pm  * *    * *   



Riff 1 (both gtrs)
|---------------------------------------------------------|
|---------------------------------------------------------|
|---------------------------------------------------------|
|---------------------------------------------------------|
|------8"----8"5"---------------12"----12"10"----8"10"12"-|
|-0"------0"-----0"-3"5"7"-8"-------8"--------8"----------|

|------------------------------------------------|
|------------------------------------------------|
|------------------------------------------------|
|------------------------------------------------|
|------8"----8"5"---------------8"-7"------4"-5"-|
|-0"------0"-----0"-3"5"7"-8"---------7"---------| (repeat Riff 1)



Riff 2                        (x4)|
|---------------------------------|
|---------------------------------|
|---------------------------------|
|---------------------------------|
|---------------------------------|
|-8p5-0-4h7-0-8p5-0-4h7-0-1p0-1-/-|
pm    *     *     *     *

                                                              (x2)|
|-----------------------------------------------------------------|
|-----------------------------------------------------------------|
|-----------------------------------------------------------------|
|-----------------------------------------------------------------|
|-8p5---4h7---8p5---4h7---1p0-1-/-8p5---4h7---8p5---4h7-----------|
|-----0-----0-----0-----0-------------0-----0-----0-----0-1p0-1-/-|
pm    *     *     *     *             *     *     *     *


Transition
(gtr. I)
|-------------------------------|
|-------------------------------|
|-------------------------------|
|-------------------------------|
|-------------------------------|
|-0000000_----------------------|
pm*******

(gtr. II)
|-------------------------------|
|-------------------------------|
|-------------------------------|
|-------------------------------|
|-------------------------------|
|-----------0000000_------------|
pm          *******


Breakdown, Part 1
(both gtrs)
|-------------------------------------------|
|-------------------------------------------|
|-------------------------------------------|
|-------------------------------------------|
|-0000000_--0000000_----00_-00_-00_-00_-00_-|
|-0000000_--0000000_----00_-00_-00_-00_-00_-|
pm*******   *******     **  **  **  **  **

|-------------------------------------------|
|-------------------------------------------|
|-------------------------------------------|
|-------------------------------------------|
|-0000000_--0000000_----00_-00_-00_-0_-000_-|
|-0000000_--0000000_----00_-00_-00_-0_-000_-| (repeat Part 1)
pm*******   *******     **  **  **  *  ***


Part 2                                                            (x2)|
|---------------------------------------------------------------------|
|---------------------------------------------------------------------|
|---------------------------------------------------------------------|
|---------------------------------------------------------------------|
|-0--0--0--0000--~--000-~-0-0-0-0-0-0-0-0--0--0---0000--~--000_-------|
|-1--1--1--1111--~--111-~-1-1-1-1-1-1-1-1--1--1---1111--~--111_-------| 
pm*  *  *  ****     ***   * * * * * * * *  *  *   ****     ***


Riff 3
|--------------------------------------------------|
|--------------------------------------------------|
|--------------------------------------------------|
|-------8"-7"-------5"-7"-------8"-7"-5"-7"-8"-10"-|
|----5"-------8"-7"----------5"--------------------|
|-0"----------------------0"-----------------------|

|-------------------------------------------------|
|-------------------------------------------------|
|-------------------------------------------------|
|-------8"-7"-------5"-7"-------8"-7"-------------|
|----5"-------8"-7"----------5"-------------8"-7"-|
|-0"----------------------0"----------8"-5"-------|


(gtr. I)
|--------------------------------------------------|   
|--------------------------------------------------|    
|--------------------------------------------------|        \
|-------8"-7"-------5"-7"-------8"-7"-5"-7"-8"-10"-|         \
|----5"-------8"-7"----------5"--------------------|          \
|-0"----------------------0"-----------------------|           \
                                                               /
(gtr.II)                                                      /
|----------------------------------------------------------| /
|----------------------------------------------------------|/
|-------------------------------------------------------9"-|
|-------12"-11"---------8"-11"-------12"-11"-8"-11"-12"----|
|----8"---------12"-10"-----------8"-----------------------|
|-0"---------------------------0"--------------------------|


(gtr. I)
|-------------------------------------|  
|-------------------------------------|  
|-------------------------------------|       \
|-------8"-7"-------5"-7"-------8"-7"-|        \
|----5"-------8"-7"----------5"-------|         \
|-0"----------------------0"----------|          \
                                                 /               
(gtr.II)                                        /               
|--------------------------------------------| /
|--------------------------------------------|/
|--------------------------------------------|
|-------12"-11"---------8"-11"-------12"-11"-|
|----8"---------12"-10"-----------8"---------|
|-0"---------------------------0"------------|


(gtr. I)
|-----------------------------------|
|-----------------------------------|
|-----------------------------------|
|---7-----------------5-------------|
|-8---10-8-10-8-7-5-5---8-7-8-7-5-4-|
|-8-----------------5---------------|
pm*                 *

(gtr. I)
|-----------------------------------|
|-----------------------------------|
|-----------------------------------|
|-8_----------------5_--------------|
|-8_----------------5_--------------|
|-8_----------------5_--------------|
pm*                 *



Riff 4                                                         (x4)|
|------------------------------------------------------------------|
|------------------------------------------------------------------|
|------------------------------------------------------------------|
|------------------------------------------------------------------|
|-----5---4-----------3---2-----------5---4-----------2------------|
|-0-0---0---0-0-0-2h3---3---3-2h3-0-0---0---0-0-0-2h3---3-0h2-3~~~-|
pm* *   *   * * *                 * *   *   * * *



Outro
                                                                       (x2)|
|--------------------------------------------------------------------------|
|--------------------------------------------------------------------------|
|--------------------------------------------------------------------------|
|--------------------------------------------------------------------------|
|-0-3-2-1_----00_--00_-----0-~-0-~-0--0-3-2-1_----00_--00_-----0-0-0-0-0-0-|
|-0-3-2-1_----00_--00_-----1-~-1-~-1--0-3-2-1_----00_--00_-----1-1-1-1-1-1-|
pm* * * *     **   **      *   *   *  * * * *     **   **      * * * * * *

|--------------------------------------------------------------------------|
|--------------------------------------------------------------------------|
|--------------------------------------------------------------------------|
|--------------------------------------------------------------------------|
|-------------00_--00_-----0-~-0-~-0--------------00_--00_-----0-0-0-0-0-0-|
|-0-3-2-1_----00_--00_-----1-~-1-~-1--0-3-2-1_----00_--00_-----1-1-1-1-1-1-|
pm            **   **      *   *   *              **   **      * * * * * *

end on
|-----|
|-----|
|-----|
|-----|
|-0_--|
|-0_--|



So that's it. I know all my notes are right, but if you want to play some
of these parts a little different then be my guest. That's the whole point
right? I put the difficulty as intermediate just because that intro is pretty 
tricky. Anyway comment, rate, enjoy. Stay metal \m/ 





Comments


Popular Carnifex tabs & chords
Dead Against The Gate Tabs
Dead But Dreaming Tabs
Entombed Monarch Tabs
Hell Chose Me 3 Tabs
Hope Dies With The Decadent Tabs
Slit Wrist Savior 2 Tabs
Sorrow Spell Intro Tabs
Sorrow Spell Intro 1 Tabs
Sorrowspell Tabs
To My Dead And Dark Dreams Tabs


Song lyrics



↑ Back to top | Tablatures and chords are parodies/interpretations of the original songs. You may use it for private study, scholarship, research or language learning purposes only
© 2014 AZChords.com Contact us | Privacy policy | DMCA | Add/correct tabs | Request tabs | Top 50 tabs