>
 >
Names Mean Nothing

Names Mean Nothing Guitar Tabs

Carnifex - Names Mean Nothing chords, tabs, tablatures, lyrics

Guitar lessons | Add/correct | Request | Top 50 tabs Artists:  A B C D E F G H I J K L M N O P Q R S T U V W X Y Z 0-9

Names Mean Nothing Guitar Tabs – Carnifex

CD, Sheet music, Poster

Do you like Names Mean Nothing? Share with your friends now
TabsTabs v2
Names Mean Nothing by Carnifex

intro
|--------------------------------------------------------------------------|
|--------------------------------------------------------------------------|
|--------------------------------------------------------------------------|
|-----------------------------------------------------------5h8p5p0-6h9p6p0|
|3h6p3p0-2h5p2p0----6h9p6p0-5h8p5p0----8h11p8p0-7h10p7p0-------------------|
|----------------00-----------------00-------------------00----------------|

Riff 1(trem. picked)
|-----------------------------------------------|
|-----------------------------------------------|
|-----------------------------------------------|
|-------------------------------------3~~2~~----|
|----1~~----------0~~-------1~~-------------3~~-|
|-1~~---4~~-1~~3~~---3~~-1~~---4~~-1~~----------|


|-------------------------------------------|
|-------------------------------------------|
|-------------------------------------------|
|-------------------------------------------|
|----1~~----------0~~-------1~~----4-3-2-3*-|
|-1~~---4~~-1~~3~~---3~~-1~~---4~~-5-4-3----|


|-----------------------------------------------|
|-----------------------------------------------|
|-----------------------------------------------|
|-------------------------------------3~~2~~----|
|----1~~----------0~~-------1~~-------------3~~-|
|-1~~---4~~-1~~3~~---3~~-1~~---4~~-1~~----------|


|------------------------------------------|
|------------------------------------------|
|------------------------------------------|
|------------------------------------------|
|----1~~----------0~~-------1~~----4-3-2-1-|
|-1~~---4~~-1~~3~~---3~~-1~~---4~~-5-4-3-2-|



Riff 2
|-------------------------|-------------------------|
|-------------------------|-------------------------|
|-------------------------|-------------------------|
|------2------------------|-------2-----------5-----|
|0-2-3---3-2-5-3-2-3-2----|-0-2-3---3-2-5-3-2---8-7-|
|-0-0-0-0-0-0-0-0-0-0-0-3-|0-0-0-0-0-0-0-0-0-0-0-0--|


|-------------------------|----------------------------|
|-------------------------|----------------------------|
|-------------------------|----------------------------|
|------2------------------|-------2-----5--------------|
|0-2-3---3-2-5-3-2-3-2----|-0-2-3---3-2---8-7-xx-xx-xx-|
|-0-0-0-0-0-0-0-0-0-0-0-3-|0-0-0-0-0-0---0-0--xx-xx-xx-|


Riff3
|---------------------|------------------------|
|---------------------|------------------------|
|---------------------|------------------------|\
|-----------------5h7-|--7--7-7--12-10h12p10---| \
|8--7--8--10-8-7h8----|---------------------12-|  \
|-00-00-00--0-0-------|88-88-8-77--7-----------|   \
                                                    \
                                                    /  2x
|---------------------|------------------------|   /
|---------------------|------------------------|  /
|---------------------|------------------------| /
|-----------------5h7-|--7--5------------------|/
|8--7--8--10-8-7h8----|-------8--8--8p7p-------|
|-00-00-00--0-0-------|88-88-8-77-77----7------|


Breakdown 1
G1          G2
|-------|   |-------|
|-------|   |-------|
|-------|   |-------|
|-------|   |-------|
|-00-00-|   |-00-00-|
|-11-11-|   |-11-11-|


|-------------------------------------|
|-------------------------------------|
|-------------------------------------|
|------------------------1p0-------3*-|
|-00-00--0000-00-0000-00----1p0-xx----|
|-11-11--1111-11-1111-11--------xx----|


|-----------------------------------------|
|-----------------------------------------|
|-----------------------------------------|
|------------------------0h6h7h9-0h7h9h10-|(Repeat)
|-00-00--0000-00-0000-00------------------|
|-11-11--1111-11-1111-11------------------|



Riff 4
G1 & G2
|------------------------------------|
|------------------------------------|
|------------------------------------|
|------------------------------------|
|------------------------------------|
|-1~11-1~11-1~4~1~2~-22-2~22-2~5~4~2~|
pm  **   **          **   **


G1
|------------------------------------|
|------------------------------------|
|------------------------------------|
|------------------------------------|
|------------------------------------|
|-1~11-1~11-1~4~1~2~-22-2~22-2~5~4~2*|
pm  **   **          **   **


G2
|------------------------------------|
|------------------------------------|
|------------------------------------|
|------------------------------------|
|------------------------------------|
|-4~44-4~44-4~7~4~5~-55-5~55-5~8~7~5*|
pm  **   **          **   **


Breakdown 2
|---------------------------------------------------------|
|---------------------------------------------------------|
|---------------------------------------------------------|
|---------------------------------------------------------|(Repeat)
|-0000--0000-0-0000---0000-0000-0000--0000-0-0000---0-----|
|-0000--0000-0-0000---0000-0000-0000--0000-0-0000---0-1rb-|
pm****  **** * ****   **** **** ****  **** * ****   *


Repeat:
Riff 1
Riff 3
Breakdown 1
Riff 4   (variations on this part I dindt tab, figure it out urself.)
Breakdown 2

Thats all people, hope u enjoy...





Comments


Popular Carnifex tabs & chords
Dead In My Arms Tabs
Entombed Monarch Tabs
Hell Chose Me 1 Tabs
Hell Chose Me 2 Tabs
Lie To My Face 1 Tabs
Love Lies In Ashes Tabs
Names Mean Nothing 1 Tabs
Sorrow Spell Intro Tabs
Sorrow Spell Intro 1 Tabs
The Diseased And The Poisoned Intro 1 Tabs


Song lyrics



↑ Back to top | Tablatures and chords are parodies/interpretations of the original songs. You may use it for private study, scholarship, research or language learning purposes only
© 2014 AZChords.com Contact us | Privacy policy | DMCA | Add/correct tabs | Request tabs | Top 50 tabs