>
 >
Lie To My Face

Lie To My Face Guitar Tabs

Carnifex - Lie To My Face chords, tabs, tablatures, lyrics

Guitar lessons | Add/correct | Request | Top 50 tabs Artists:  A B C D E F G H I J K L M N O P Q R S T U V W X Y Z 0-9

Lie To My Face Guitar Tabs – Carnifex

CD, Sheet music, Poster

Do you like Lie To My Face? Share with your friends now
TabsTabs v2Tabs v3
                          yes this song is in drop A
                     and it's played with 7 string ibanez

                               h-hammer on
                               p-pull off
                             t-tremolo pick
                               *-harmonic
                         x-how many times played

intro x2

|--------------------------------------------------------------------------|
|--------------------------------------------------------------------------|
|--------------------------------------------------------------------------|
|--------------------------------------------------------------------------|
|-------3*-----------------------tapp 11 then move to 10 and tapp----------|
|--1--0----1--0--3*--1--0--8-11-8-11-8-11-8-11-7-10-7-10-7-10-7-10---------|
|--1--0----1--0------1--0---------------------------play tapp part twice---|

verse x2

|--------------------------------------------------------------------------|
|--------------------------------------------------------------------------|
|--------------------------------------------------------------------------|
|--------------------------------------------------------------------------|
|--------------------------------------------------------------------------|
|----------3t--2t----------8t--7t----------3t--2t----------2t--3t----------|
|--3t--2t----------3t--2t----------3t--2t----------3t--2t------------------|

riff 1 x2

|--------------------------------------------------------------------------|
|--------------------------------------------------------------------------|
|--------------------------------------------------------------------------|
|--------------------------------------------------------------------------|
|--------2t--1--------3t--2--------2t--1--------3t--2----------------------|
|--2--1---------2--1---------2--1---------2--1-----------------------------|
|--2--1---------2--1---------2--1---------2--1-----------------------------|

riff 2

|--------------------------------------------------------------------------|
|--------------------------------------------------------------------------|
|--------------------------------------------------------------------------|
|--------------------------------------------------------------------------|
|--------------------------------------------------------------------------|
|------7h8------8h10-7h8-5h7------7h8------8h10-7h8-5h7--------------------|
|--0t-------0t----------------0t-------0t----------------------------------|

|--------------------------------------------------------------------------|
|--------------------------------------------------------------------------|
|--------------------------------------------------------------------------|
|--------------------------------------------------------------------------|
|--------------------------------------------------------------------------|
|------7h8------8h10-7h8-5h7------7h8------8h10-7h8-5h7--------------------|
|--8t-------8t----------------5t-------7t----------------------------------|

verse 2 x2

|--------------------------------------------------------------------------|
|--------------------------------------------------------------------------|
|--------------------------------------------------------------------------|
|--------------------------------------------------------------------------|
|----------------------------------------------7---------------------------|
|----------------------------------8--0--7--8-----10--8--7-----------------|
|--0t---8--0--8--0--10--8--7---0t------------------------------------------|

riff 3 x3

|--------------------------------------------------------------------------|
|--------------------------------------------------------------------------|
|--------------------------------------------------------------------------|
|--------------------------------------------------------------------------|
|--------------------------------------------------------------------------|
|------5-0-4-0------7-0-5-0------8p7---------------------------------------|
|--00-----------00-----------00--------------------------------------------|

|--------------------------------------------------------------------------|
|--------------------------------------------------------------------------|
|--------------------------------------------------------------------------|
|--------------------------------------------------------------------------|
|--------------------------------------------------------------------------|
|------5-0-4-0------8p7-----8h10-----8p7-----------------------------------|
|--00-----------00-------0--------0----------------------------------------|

riff 3 x3

|--------------------------------------------------------------------------|
|--------------------------------------------------------------------------|
|--------------------------------------------------------------------------|
|--------------------------------------------------------------------------|
|--------------------------------------------------------------------------|
|------5-0-4-0------7-0-5-0------8p7---------------------------------------|
|--00-----------00-----------00--------------------------------------------|

|--------------------------------------------------------------------------|
|--------------------------------------------------------------------------|
|--------------------------------------------------------------------------|
|--------------------------------------------------------------------------|
|--------------------------------------------------------------------------|
|------5-0-4-0------8p7-----8h10-----8p7-----------------------------------|
|--00-----------00-------0--------0----------------------------------------|

pre breakdown x1

|------|
|------|
|------|
|------|
|--0---|
|--0---|
|--0---|

breakdown

|--------------------------------------------------------------------------|
|--------------------------------------------------------------------------|
|--------------------------------------------------------------------------|
|--------------------------------------------------------------------------|
|------------------------------------------------3*------------------------|
|--3--2--1--2--1--0--1--0---3--2--1--2--1--0--1----------------------------|
|--3--2--1--2--1--0--1--0---3--2--1--2--1--0--1----------------------------|

|--------------------------------------------------------------------------|
|--------------------------------------------------------------------------|
|--------------------------------------------------------------------------|
|--------------------------------------------------------------------------|
|--------------------------------------------------------------------------|
|--3--2--1--2--1--0--1--0---3--2--1--2--1--0--1----------------------------|
|--3--2--1--2--1--0--1--0---3--2--1--2--1--0--1--3*------------------------|

ending of breakdown x2

|--------------------------------------------------------------------------|
|--------------------------------------------------------------------------|
|--------------------------------------------------------------------------|
|--------------------------------------------------------------------------|
|------------------------------------------------3*------------------------|
|--3--2--1--2--1--0--1--0---3--2--1--2--1--0--1----------------------------|
|--3--2--1--2--1--0--1--0---3--2--1--2--1--0--1----------------------------|

riff 4

|--------------------------------------------------------------------------|
|--------------------------------------------------------------------------|
|--------------------------------------------------------------------------|
|--------------------------------------------------------------------------|
|----------------------------------8t------7t------------------------------|
|--5t--7t--5t--8t--7t--5t--3t--1t------0t----------------------------------|
|--------------------------------------------------------------------------|

|--------------------------------------------------------------------------|
|--------------------------------------------------------------------------|
|--------------------------------------------------------------------------|
|--------------------------------------------------------------------------|
|----------------------------------8t--7t----------------------------------|
|--5t--7t--5t--8t--7t--5t--3t--1t----------8t--7*--------------------------|
|--------------------------------------------------------------------------|

|--------------------------------------------------------------------------|
|--------------------------------------------------------------------------|
|--------------------------------------------------------------------------|
|--------------------------------------------------------------------------|
|----------------------------------8t------7t------------------------------|
|--5t--7t--5t--8t--7t--5t--3t--1t------0t----------------------------------|
|--------------------------------------------------------------------------|

|--------------------------------------------------------------------------|
|--------------------------------------------------------------------------|
|--------------------------------------------------------------------------|
|--------------------------------------------------------------------------|
|----------------------------------8t--7t----------------------------------|
|--5t--7t--5t--8t--7t--5t--3t--1t----------8t--7b--------------------------|
|--------------------------------------------------------------------------|

verse 3 x2

|--------------------------|
|--------------------------|
|--------------------------|
|--------------------------|
|--------------------------|
|--------------------------|
|--1--2--0--2--3--0--1--2--|

verse 4 x4

|--------------------------------------------------------------------------|
|--------------------------------------------------------------------------|
|--------------------------------------------------------------------------|
|--------------------------------------------------------------------------|
|--------------------------------------------------------------------------|
|--1--2--0--2--3--0--1--2--1--2--0--2--3--0--1--2--------------------------|
|--1--2--0--2--3--0--1--2--1--2--0--2--3--0--1--2--------------------------|

breakdown again x4

|--------------------------------------------------------------------------|
|--------------------------------------------------------------------------|
|--------------------------------------------------------------------------|
|--------------------------------------------------------------------------|
|--------------------------------------------------------------------------|
|--0--0--0--0--0--0--0t--0--0--0-------------------------------------------|
|--1--1--1--1--1--1--1t--1--1--1-------------------------------------------|

breakdown x2 get rythem down yourself

|--------------------------------------------------------------------------|
|--------------------------------------------------------------------------|
|--------------------------------------------------------------------------|
|--------------------------------------------------------------------------|
|--------------------------------------------------------------------------|
|--00--00--00---000--000--00--0-0-0--000--000--00--------------------------|
|--00--00--00---000--000--00--0-0-0--000--000--00--------------------------|

riff 5 x2

|--------------------------------------------------------------------------|
|--------------------------------------------------------------------------|
|--------------------------------------------------------------------------|
|--------------------------------------------------------------------------|
|--------------------------------------------------------------------------|
|--7t--8t--12t--10t--7t--8t--7t-------7t--8t--7t-------8t--10t--8t---------|
|---------------------------------8t--------------10t----------------------|

riff 6 x2

|--------------------------------------------------------------------------|
|--------------------------------------------------------------------------|
|--------------------------------------------------------------------------|
|--------------------------------------------------------------------------|
|--------------------------------------------------------------------------|
|--10t--11t--15t--13t--10t--11t--10t-------10t--11t--10t------11t--13t--11t|
|-------------------------------------11t-----------------13t--------------|

ending verses

|--------------------------------------------------------------------------|
|--------------------------------------------------------------------------|
|--------------------------------------------------------------------------|
|--------------------------------------------------------------------------|
|--------------------------------------------------------------------------|
|--1--0--1--0--1--2--1--0--1--0--1--0--------------------------------------|
|--1--0--1--0--1--2--1--0--1--0--1--0--------------------------------------|

|--------------------------------------------------------------------------|
|--------------------------------------------------------------------------|
|--------------------------------------------------------------------------|
|--------------------------------------------------------------------------|
|--------------------------------------------------------------------------|
|-1-0-1-0-1-2-1-0-1-0-1-0--7h10-7h10-7h10-7h10-8h11-8h11-8h11-8h11---------|
|-1-0-1-0-1-2-1-0-1-0-1-0--------------------------------------------------|

|--------------------------------------------------------------------------|
|--------------------------------------------------------------------------|
|--------------------------------------------------------------------------|
|--------------------------------------------------------------------------|
|--------------------------------------------------------------------------|
|--1--0--1--0--1--2--1--0--1--0--1--0--------------------------------------|
|--1--0--1--0--1--2--1--0--1--0--1--0--------------------------------------|

ending

|--------------------------------------------------------------------------|
|--------------------------------------------------------------------------|
|--------------------------------------------------------------------------|
|--------------------------------------------------------------------------|
|--------------------------------------------------------------------------|
|--1--0--1--0--1--2--1--0--1--0--1--0--1--0--------------------------------|
|--1--0--1--0--1--2--1--0--1--0--1--0--1--0--------------------------------|

             leave comments and rate all credit to carnifex though!





Comments


Popular Carnifex tabs & chords
Behold My Legion Tabs
Entombed Monarch Tabs
Hell Chose Me Tabs
Hell Chose Me 1 Tabs
In Coalesce With Filth And Faith Tabs
Love Lies In Ashes Tabs
Names Mean Nothing Tabs
Sadistic Embrace Tabs
The Diseased And The Poisoned Tabs
The Diseased And The Poisoned Intro Tabs


Song lyrics



↑ Back to top | Tablatures and chords are parodies/interpretations of the original songs. You may use it for private study, scholarship, research or language learning purposes only
© 2014 AZChords.com Contact us | Privacy policy | DMCA | Add/correct tabs | Request tabs | Top 50 tabs