>
 >
Treat 1

Treat 1 Guitar Tabs

Carlos Santana - Treat 1 chords, tabs, tablatures, lyrics

Guitar lessons | Add/correct | Request | Top 50 tabs Artists:  A B C D E F G H I J K L M N O P Q R S T U V W X Y Z 0-9

Treat 1 Guitar Tabs – Carlos Santana

CD, Sheet music, Poster

Do you like Treat 1? Share with your friends now
TabsTabs v2
Song Title: Treat
Artist/Band: Santana


Symbols:

h=hammer-on
p=pull-off
/=slide-up
\=slide-down
b=bend
r=release bend
~=left hand vibrato
()=let ring
Tr=Trill
x=Blocked string

Tuning:Standard

CHORDS:

-Gm:355333
-CMaj:x35553


During piano part:

e|--3---3-------3---3----------------3---3-|
B|--3---5-------3---5----------------3---5-|
G|--3---5-------3---5----------------3---5-|
D|--5---5-------5---5------3h5-------5---5-|
A|--5---3----5--5---3----------3h5---5---3-|
E|--3-----------3--------------------3---3-|
    0:10        0:15       0:19

e|-------3---3----------------------3---3-|
B|-------3---5----------------------3---5-|
G|-------3---5----------------------3---5-|
D|-------5---5------3h5-3-----------5---5-|
A|-5-3---5---3------------3h5-5-5---5---3-|
E|-------3--------------------------3-----|
  0:24              0:28

e|-------3---3-|--3---3--|--3---3--|--3---3--|
B|-------3---5-|--3---5--|--3---5--|--3---5--|
G|-------3---5-|--3---5--|--3---5--|--3---5--|
D|-------5---5-|--5---5--|--5---5--|--5---5--|
A|-3h5---5---3-|--5---3--|--5---3--|--5---3--|
E|-------3-----|--3------|--3------|--3------|
  0:34          

|-------3---3-|
|-------3---5-|
|-------3---5-|
|-------5---5-|
|-3h5---5---3-|
|-------3-----|
0:54




Riff during this part:

e|------------3--3---3-|
B|------------3--3---5-|
G|------------3--3---5-|
D|---3h5------5--5---5-|
A|-5-----3h5--5--5---3-|
E|------------3--3-----|
  1:07

:

e|------------------------------------------------------------|
B|-8h(10)--10--10h11-11p10-10-10-10---10-10-11---11p10p8h11p8-|
G|------------------------------------------------------------|
D|------------------------------------------------------------|
A|------------------------------------------------------------|
E|------------------------------------------------------------|
  2:02

e|-------------------------|----------------------------|
B|-8-----8-11-11p10p8------|-8-------------------8-11p8-|
G|---7h9--------------10-8-|---5h7p5---5-------7--------|
D|-------------------------|---------8---8-5-8----------|
A|-------------------------|----------------------------|
E|-------------------------|----------------------------|
  2:10

e|-11h13-13p11-13p11-13-15p13p11h13----|
B|----------------------------------12-|
G|-------------------------------------|
D|-------------------------------------|
A|-------------------------------------|
E|-------------------------------------|
  2:16

e|-----------------------------------------|
B|-13b15-13b15-15-15--11-13-13-------11----|
G|-----------------------------10h12----12-|
D|-----------------------------------------|
A|-----------------------------------------|
E|-----------------------------------------|
  2:19

e|-------------------------------------------8-8-10-10-|
B|-11p10-10-------11p10-10-------10-10-11-11-----------|
G|----------10-12----------10h12-----------------------|
D|-----------------------------------------------------|
A|-----------------------------------------------------|
E|-----------------------------------------------------|
  2:23

e|-12h15-15---12-12--15-15-------------15----18\-|
B|-------------------------15-15-15h17----17-----|
G|-----------------------------------------------|
D|-----------------------------------------------|
A|-----------------------------------------------|
E|-----------------------------------------------|
  2:26

e|-18p17p15----15-18p17p15----15-18p17p15----15-18p17p15-|
B|----------18-------------18-------------18-------------|
G|-------------------------------------------------------|
D|-------------------------------------------------------|
A|-------------------------------------------------------|
E|-------------------------------------------------------|
  2:29

e|-18p17p15--18p17p15--18p17p15--18p17p15--18p17p15--18p17p15-|
B|------------------------------------------------------------|
G|------------------------------------------------------------|
D|------------------------------------------------------------|
A|------------------------------------------------------------|
E|------------------------------------------------------------|
  

e|-18b20~--20b22-22-22-22--22-22--22-22--22-22--22-22--22-22--22r21-20-20--18-18p17-17p15-17p15-|
B|----------------------------------------------------------------------------------------------|
G|----------------------------------------------------------------------------------------------|
D|----------------------------------------------------------------------------------------------|
A|----------------------------------------------------------------------------------------------|
E|----------------------------------------------------------------------------------------------|
  2:33

e|-17-15---------------------------------------------------------------|
B|-------18-18-18---17-17---15-15-----------20-------------------------|
G|--------------------------------17/19-19--19--19---19p17p15----15----|
D|------------------------------------------------------------17----17-|
A|---------------------------------------------------------------------|
E|---------------------------------------------------------------------|
  2:40

e|-------------------------------------------------------------------|
B|-15~-15~----17-17-15-17p15---------15~-15~----17-17-15-17p15-------|
G|---------15----------------15p12-----------15----------------15p12-|
D|-------------------------------------------------------------------|
A|-------------------------------------------------------------------|
E|-------------------------------------------------------------------|
  2:43

e|-18-17-18-17-18b20-18b20-20-|-20b22-22-22-20-22-22-18-20-20--14h15--18\-|
B|----------------------------|-------------------------------------------|
G|----------------------------|-------------------------------------------|
D|----------------------------|-------------------------------------------|
A|----------------------------|-------------------------------------------|
E|----------------------------|-------------------------------------------|
  2:50

Very rapidly:
e|-18p17p15----------18p17p15----------18p17p15----------18p17p15----------18p17p15----------|
B|----------18p17p15----------18p17p15----------18p17p15----------18p17p15----------18p17p15-|
G|-------------------------------------------------------------------------------------------|
D|-------------------------------------------------------------------------------------------|
A|-------------------------------------------------------------------------------------------|
E|-------------------------------------------------------------------------------------------|
  2:57

Faster:
e|-18p17p15----------18p17p15----------18p17p15----------|
B|----------18p17p15----------18p17p15----------18p17p15-|
G|-------------------------------------------------------|
D|-------------------------------------------------------|
A|-------------------------------------------------------|
E|-------------------------------------------------------|
  3:00

e|-15-15-13-12-10--------------------------------------------|
B|----------------11--11------11\--11\--11\--11\--11-----11\-|
G|----------------12-----12---12\--12\--12\--12\-----12--12\-|
D|----------------------------12\--12\--12\--12\---------12\-|
A|-----------------------------------------------------------|
E|-----------------------------------------------------------|
  3:01

e|---------------------------------------|
B|-3--x-x-x--3\---5--5--3--5---x-x-x---3-|
G|-3--x-x-x--3\---5--5--3--5---x-x-x---3-|
D|-5--x-x-x--5\---5--5--3--5---x-x-x---3-|
A|-5--x-x-x--5\----------------x-x-x-----|
E|-3--x-x-x--3\--------------------------|(X4)
  3:07

e|-------|
B|-3---3-|
G|-3---3-|
D|-3---5-|
A|-----5-|
E|-----3-|
  3:20


Repeat chords and then:

e|-3---3--|-------------3---3-|
B|-3---5--|-------------3---5-|
G|-3---5--|-------------3---5-|
D|-5---5--|-3h5---------5---5-|
A|-5---3--|-----3h5-----5---3-|
E|-3------|---------3---3-----|
   3:24     3:27

e|-3---3-|-3---3-|-3---3--|
B|-3---5-|-3---5-|-3---5--|
G|-3---5-|-3---5-|-3---5--|
D|-5---5-|-5---5-|-5---5--|
A|-5---3-|-5---3-|-5---3--|
E|-3-----|-3-----|-3------|
  3:31

e|-----------3---3-|--3---3--|
B|-----------3---5-|--3---5--|
G|-----------3---5-|--3---5--|
D|-3h5-------5---5-|--5---5--|
A|-----3h5---5---3-|--5---3--|
E|---------3-3-----|--3------|
  3:41

e|--------3---3-|--3---3--|--3---3--|
B|--------3---5-|--3---5--|--3---5--|
G|--------3---5-|--3---5--|--3---5--|
D|--------5---5-|--5---5--|--5---5--|
A|--3h5---5---3-|--5---3--|--5---3--|
E|------3-3-----|--3------|--3------|
  3:51

      Tr~~~~        Tr~~~
e|-3h6------p3-|-3h5-----p3-|
B|-------------|------------|
G|-------------|------------|
D|-------------|------------|
A|-------------|------------|
E|-------------|------------|
  4:04

e|-6-8-8-8-8h9p6---|-------|
B|---------------8-|-----8-|
G|-----------------|-7h9---|
D|-----------------|-------|
A|-----------------|-------|
E|-----------------|-------|
  4:11

e|-----------------------------------------------------|
B|-10h11-10p8-10p8--------------8----------------------|
G|-----------------9h10-10-10p9---10-9h10p9-7-9p7------|
D|------------------------------------------------8----|
A|--------------------------------------------------10-|
E|-----------------------------------------------------|
  4:17

e|---------------------------------------------------------|
B|------8-8--8-8------8h10-8h10-8h10-8h10--10p8p6----------|
G|-7h10----------7h10-----------------------------9p7------|
D|-----------------------------------------------------8p5-|
A|---------------------------------------------------------|
E|---------------------------------------------------------|
  4:22

e|-----------------------------------------------------------|
B|-8---8h10-11-10p8-10p8-------------------------------------|
G|---7-------------------9p7-9p7-----------------------------|
D|-------------------------------8p5-8-8p5-5p3-2-2-----------|
A|-------------------------------------------------3h5-5---3-|
E|-------------------------------------------------------6---|
  4:27

e|-----------3-5-|
B|---------3-----|
G|-------3-------|
D|-----5---------|
A|---5-----------|
E|-3-------------|. . . END
  4:37





Comments


Popular Carlos Santana tabs & chords
Love Of My Life Chords
Adouma Tabs
Body Surfing Tabs
Evil Ways 1 Tabs
Guajira Tabs
Im Gone Tabs
Into The Night Tabs
Life Is A Lady Tabs
Say It Again Tabs
Somewhere In Heaven Ukulele


Song lyrics



↑ Back to top | Tablatures and chords are parodies/interpretations of the original songs. You may use it for private study, scholarship, research or language learning purposes only
© 2014 AZChords.com Contact us | Privacy policy | DMCA | Add/correct tabs | Request tabs | Top 50 tabs