>
 >
Hope Youre Feeling Better

Hope Youre Feeling Better Guitar Tabs

Carlos Santana - Hope Youre Feeling Better chords, tabs, tablatures, lyrics

Guitar lessons | Add/correct | Request | Top 50 tabs Artists:  A B C D E F G H I J K L M N O P Q R S T U V W X Y Z 0-9

Hope Youre Feeling Better Guitar Tabs – Carlos Santana

CD, Sheet music, Poster

Do you like Hope Youre Feeling Better? Share with your friends now
Bass TabsTabsTabs v2
                        *Hope You're Feeling Better (Gregg Rolie)*

Intro (Where the Guitar comes in) (00:11) (Wah-Pedal in use):
|---------------------------------12--\-----------------------------------12--|
|----------------------------------12-\-----------------------------------12--|
|-----------------------------------12\-----------------------------------12--|
|------5---7----------5---5-5------------------5---7----------5---5-5---------|
|-5h7----7--------5h7---7-----7-----------5h7----7--------5h7---7-----7-------|
|-----------------------------------------------------------------------------|

Chords (if there's a space between guitar and lyrics,
then it is played after, but if there is no space, then
it is during the lyrics above):

Em
Is that you?

|--------------|
|--------------|
|-9-9----------|
|-----9p7------|
|---------10p7-|
|--------------|

Em                 G  A
Eyes slowly fading

Em
Is that you?

|---------------------|
|-5-5-----------------|
|---------------------|
|-----7p5h7p5h7p5h7p5-|
|---------------------|
|---------------------|

Em                     G  A
Your mind full of tears

Em
Is that you?

|---------------------|
|-5-5-----------------|
|---------------------|
|-----7p5h7p5h7p5h7p5-|
|---------------------|
|---------------------|

Em                        G  A
Searchin' for a good time

Em
Is that you?

|---------------------|
|-5-5-----------------|
|---------------------|
|-----7p5h7p5h7p5h7p5-|
|---------------------|
|---------------------|

Em                          G
Waiting for all these years

A       G                   Em
 Well I hope you're feeling better

|-------------------------------------|
|-15b17-17-15b17-17-15-12-------------|
|-------------------------16b14p12----|
|----------------------------------14-|
|-------------------------------------|
|-------------------------------------|

A       G                   Em
 Yes, I hope you're feeling good

|-17b19-b17-19-17-15--17p15----|
|---------------------------17-|
|------------------------------|
|------------------------------|
|------------------------------|
|------------------------------|


  A       G                   Em
   Yes, I hope you're feeling better
|----------------------------------|
|---------13b15---15b17------------|
|-12b14----------------------------|
|----------------------------------|
|----------------------------------|
|----------------------------------|

Em
Is that you?

|---------------------|
|-5-5-----------------|
|---------------------|
|-----7p5h7p5h7p5h7p5-|
|---------------------|
|---------------------|

Em                     G  A
Lookin' cross the ocean

Em
Is that you?

|---------------------|
|-5-5-----------------|
|---------------------|
|-----7p5h7p5h7p5h7p5-|
|---------------------|
|---------------------|

Em                             G  A
Thinkin' nothing's really there

Em
Is that you?

|---------------------|
|-5-5-----------------|
|---------------------|
|-----7p5h7p5h7p5h7p5-|
|---------------------|
|---------------------|

Em                      G  A
Waitin' for the sunshine

Em
Is that you?

|---------------------|
|-5-5-----------------|
|---------------------|
|-----7p5h7p5h7p5h7p5-|
|---------------------|
|---------------------|

Em                       G  A
When all you see is glare

A     G                   Em
And I hope you're feelin' better

|-12--------------------15b17b15-12-------------|
|----15b17-17--15b17-17-------------15p12-------|
|-----------------------------------------14----|
|--------------------------------------------14-|
|-----------------------------------------------|
|-----------------------------------------------|

A       G                   Em
 Yes, I hope you're feeling good

|-17b19-b17-19-17-15--17p15-----------|
|---------------------------17--20b22-|
|-------------------------------------|
|-------------------------------------|
|-------------------------------------|
|-------------------------------------|

  A       G                   Em
   Yes, I hope you're feeling better
|-------------------------15-------|
|---------13b15---15b17------17----|
|-12b14----------------------------|
|----------------------------------|
|----------------------------------|
|----------------------------------|

Guitar Solo (01:32) (Wah-Pedal):
|------------------3-3---------------------------------------------3-3-------|
|-5p3-5------5p3h5-----5p3-5------5p3---------------5p3-5------3h5-----5p3-5-|
|-------------------------------------4p2-4----------------------------------|
|----------------------------------------------------------------------------|
|----------------------------------------------------------------------------|
|--------------------------------------------0-------------------------------|

|--------------|-----------------------------------------------15b17-17-17b15-12--15-|
|-5p3----------|-12h15--12--------------15b17-17----15p12----------------------------|
|-----4p2-4----|-----------14p12----12-----------------------------------------------|
|--------------|-----------------14--------------------------------------------------|
|--------------|---------------------------------------------------------------------|
|------------0-|---------------------------------------------------------------------|

|----------------------------------------------|
|-15b17-b15p12-------------------12------12h15-|
|--------------14b16--b14----12----12----------|
|-------------------------14---------14--------|
|----------------------------------------------|
|----------------------------------------------|

|-------12-------12-------12-------12-------12-------12-------12-------12-|
|-12h15----12h15----12h15----12h15----12h15----12h15----12h15----12h15----|
|-------------------------------------------------------------------------|
|-------------------------------------------------------------------------|
|-------------------------------------------------------------------------|
|-------------------------------------------------------------------------|

|-------12-------12-------12-14p12----12----------------------------------------|
|-12h15----12h15----12h15----------15----15p12-------------------------14-------|
|----------------------------------------------12-14-14b16b14p12----12-14-12----|
|----------------------------------------------------------------12----------12-|
|-------------------------------------------------------------------------------|
|-------------------------------------------------------------------------------|

|---------------------------------------------------------------------------|
|----------15b17--------------14p12-----------------15b17-17----------15b17-|
|-14b16-16-------16b14----12--14p12----12-14b16-16-----------14b16-16-------|
|----------------------14-----------14--------------------------------------|
|---------------------------------------------------------------------------|
|---------------------------------------------------------------------------|

|-------------------------------------------------------------------------|
|----------15b17-17----------15b17-17----------15b17-17----------15b17-17-|
|-14b16-16----------14b16-16----------14b16-16----------14b16-16----------|
|-------------------------------------------------------------------------|
|-------------------------------------------------------------------------|
|-------------------------------------------------------------------------|

|----------------------------------------------15b17b15-12-17b19--20b22-|
|----------15b17-17--15-12----------------------------------------------|
|-14b16-16-----------------16b14p12-----14b16---------------------------|
|-----------------------------------14----------------------------------|
|-----------------------------------------------------------------------|
|-----------------------------------------------------------------------|

|-15p12----12-------------------------------------------------------|
|-------15----15p12-15p12--12----------------12\10/12---12\10/12-\--|
|------------------------14--14-12-14p12-----12\11/12---12\11/12-\--|
|---------------------------------------14--------------------------|
|-------------------------------------------------------------------|
|-------------------------------------------------------------------|

Em
Is that you?

|---------------------|
|-5-5-----------------|
|-----4p2p0-2p0-------|
|---------------------|
|---------------------|
|---------------------|

Em                     G  A
Who never saw your baby

Em
Is that you?

|---------------------|
|-5-5-----------------|
|---------------------|
|-----7p5h7p5h7p5h7p5-|
|---------------------|
|---------------------|

Em                    G  A
Who never had a friend

Em
Is that you?

|---------------------|
|-5-5-----------------|
|---------------------|
|-----7p5h7p5h7p5h7p5-|
|---------------------|
|---------------------|

Em                  G  A
Movin' to a new town

Em
Is that you?

|---------------------|
|-5-5-----------------|
|---------------------|
|-----7p5h7p5h7p5h7p5-|
|---------------------|
|---------------------|

Em                                G
Will diamonds replace your friends

G        A                   Em
 Well, I hope you're feelin' better

|-12--------------------------------------------|
|----15b17-17--15b17-17-15-12-15p12-------------|
|-----------------------------------16b14p12----|
|--------------------------------------------14-|
|-----------------------------------------------|
|-----------------------------------------------|

G       A                   Em
 Yes, I hope you're feelin' good

|-17b19---19--19b17p15----15b17-|
|----------------------17-------|
|-------------------------------|
|-------------------------------|
|-------------------------------|
|-------------------------------|

G       A                   Em
 Well I hope you're feelin' good
|--------------------------------|
|---------13b15---15b17----------|
|-12b14--------------------------|
|--------------------------------|
|--------------------------------|
|--------------------------------|



|----------------------------------------------|
|----------------------------------------------|
|----------------------------------------------|
|------------------2----------------------2----|
|-0h2----0---0-----------0h2----0---0----------|
|----------3---3-0----------------3---3-0------|

|-----------------------------------------------------|
|-----------------------------------------------------|
|-----------------------------------------------------|
|--------------------------------------------------2--|
|-0h2----0---0----0h2----0---0----0h2----0---0--------|
|----------3---3-----------3---3-----------3---3-0----|

|---------------------------------12--\-----------------------------------12--|
|----------------------------------12-\-----------------------------------12--|
|-----------------------------------12\-----------------------------------12--|
|------5---7----------5---5-5------------------5---7----------5---5-5---------|
|-5h7----7--------5h7---7-----7-----------5h7----7--------5h7---7-----7-------|
|-----------------------------------------------------------------------------|


2nd Guitar Solo:
|-12------------------------------12----------------12-----------------------15-|
|----15------------------------------15h17----12-12----15-12--------15p12-15----|
|-------14b16b14p12----12---14b16----------------------------14b16--------------|
|-------------------14----------------------------------------------------------|
|-------------------------------------------------------------------------------|
|-------------------------------------------------------------------------------|

|-12-------12------------------------------------------12-14-12-------------|
|----12-15----15-12--12h15p12----------------------17--12-14-12-------------|
|-----------------------------14-14b16-12----14b16-----12-14-12-14b16-14-12-|
|-----------------------------------------14--------------------------------|
|---------------------------------------------------------------------------|
|---------------------------------------------------------------------------|

|-------12-------12-------12-------12-------12-------12-------12-x-|
|-12h15----12h15----12h15----12h15----12h15----12h15----12h15----x-|
|------------------------------------------------------------------|
|------------------------------------------------------------------|
|------------------------------------------------------------------|
|------------------------------------------------------------------|

|-------12------------------------------------------------------------|
|-12h15----15-12-------------------------------12----14----15-b-17-15-|
|----------------14b16b14p12-------12----14---------------------------|
|----------------------------14-------14----14----14----14------------|
|---------------------------------------------------------------------|
|---------------------------------------------------------------------|

|-------------------------|
|-------------------------|
|-14b16-16-14-14-12-12----|
|----------------------14-|
|-------------------------|
|-------------------------|

Outro:
|--------------------15b17b15p12-17b19---20b22---14-15p14-12-12----------------------|
|---------------------------------------------------------------15b17-17-15p12-------|
|--------12----14--------------------------------------------------------------14----|
|-12h14-----14--------------------------------------------------------------------14-|
|------------------------------------------------------------------------------------|
|------------------------------------------------------------------------------------|

|-------14-17-14----------------------------12--12-12-12------------------------------|
|-14-15-----------15b17b15------------------12--12-12-12-----12\10/12---12\10/12--12\-|
|--------------------------14b16b14p12------12--12-12-12-----12\11/12---12\11/12--12\-|
|--------------------------------------14----------------14---------------------------|
|-------------------------------------------------------------------------------------|
|-------------------------------------------------------------------------------------|





Comments


Popular Carlos Santana tabs & chords
Oye Como Va Bass Tabs
Before We Go Tabs
Havanna Moon Tabs
Hoy Es Adios Intro 1 Tabs
Into The Night 8 Tabs
Just Feel Better 1 Tabs
Smooth Tabs
Victory Is Won Intro 2 Tabs
Why Dont You And I 2 Tabs
Evil Ways Ukulele


Song lyrics



↑ Back to top | Tablatures and chords are parodies/interpretations of the original songs. You may use it for private study, scholarship, research or language learning purposes only
© 2014 AZChords.com Contact us | Privacy policy | DMCA | Add/correct tabs | Request tabs | Top 50 tabs