» » »

Carlos Santana, Gypsy Queen Tabs (ver.2)

Artists:  A B C D E F G H I J K L M N O P Q R S T U V W X Y Z # 

Gypsy Queen Tabs (ver.2)

Carlos Santana Tabs
 Rating:
4/5 (4 votes)
Gypsy Queen lessons Tabs too difficult? Try these video lessons and learn fast
1
                                          Gypsy Queen (Gabor Szabo)
                                  Santana
                                  Abraxas

Intro:
|-------------------------------------2--------------|
|-------------------------------------3--------------|
|-------------------------------------2--------------|
|-0-----0-----0-----0-----0-----0-----0--(feedback)--|
|----0-----0-----0-----0-----0-----0-----------------|
|----------------------------------------------------|

Chorus
|-2h3p2-----2-----2h3p2-----2-------0-2/5-----2h3p2p0---2---|
|--------3--3------------3--3-----3-------------------3-3---|
|-----------2---------------2---------------------------2---|
|-----------0---------------0---------------------------0---|
|-----------------------------------------------------------|
|-----------------------------------------------------------|

|-------------------------------------2-----2/---|
|---3---1-1-1-1-----------------------3----------|
|-2---2---------0h2-----0-0-----------2----------|
|----------------------------4-4p2p0--0----------|
|------------------------------------------------|
|------------------------------------------------|

Guitar Solo:
|-10----10----------------10----10----------10----10---------------|
|----13------13b15b13p10-----13----------------13------13b15b13p10-|
|----------------------------------14b12p10------------------------|
|------------------------------------------------------------------|
|------------------------------------------------------------------|
|------------------------------------------------------------------|

|-10----10---------------------------------15------15-b-17----14p10----|
|----13-------------------------------------------------------------15-|
|----------14b12p10----------9-----------------------------------------|
|--------------------12-10-----10-10h12--------------------------------|
|----------------------------------------------------------------------|
|----------------------------------------------------------------------|

|-22--22-22-22-22-22-22-22-22-22-22---22--22-22-22-22-22-22-22-22-22-22-|
|-----------------------------------------------------------------------|
|-----------------------------------------------------------------------|
|-----------------------------------------------------------------------|
|-----------------------------------------------------------------------|
|-----------------------------------------------------------------------|

2nd Chorus:
|-2-----2-----2------0---3---0--2----0---3---0--2----0---3---0--2---|
|-3-----3-----3------1---3---2--3----1---3---2--3----1---3---2--3---|
|-2-----2-----2------0---0---2--2----0---0---2--2----0---0---2--2---|
|-0-----0-----0------0---0---2--2----0---0---2--2----0---0---2--2---|
|--------------------3---2---0-------3---2---0-------3---2---0------|
|------------------------3---------------3---------------3----------|

Outro:
|-------------------------------------------------------------------------|
|-------------------------------------------------------------------------|
|-------------------------------------------------------------------------|
|-------------------------------------------------------------------------|
|-5--0-3-5--0-7-5--0-3-5--0-7-5--0-3-5--0-7-5--0-3-5--0-7-5--0-3-5--0-7-5-|
|-------------------------------------------------------------------------|

|--------------------------------------0--3--0----------------|
|--------------------------------------1--3--2----------------|
|--------------------------------------0--0--2----------------|
|--------------------------------------2--0--2----------------|
|-0-3-5--0-7-5--0-3-5--0-7-5--0-3-5----3--2--0-(feedback)-----|
|-----------------------------------------3-------------------|
            
Submit corrections

comments powered by Disqus
↑ Back to top | Carlos Santana Tabs for Gypsy Queen. Lyrics for acoustic guitar and electric guitar. 1 Tablatures and chords are parodies/interpretations of the original songs. You may use it for private study, scholarship, research or language learning purposes only