>
 >
Guajira Live

Guajira Live Guitar Tabs

Carlos Santana - Guajira Live chords, tabs, tablatures, lyrics

Guitar lessons | Add/correct | Request | Top 50 tabs Artists:  A B C D E F G H I J K L M N O P Q R S T U V W X Y Z 0-9

Guajira Live Guitar Tabs – Carlos Santana

CD, Sheet music, Poster

Do you like Guajira Live? Share with your friends now
Tabs
Song name: Guajira [LIVE]

This is really an amazing song. The whole Sacred Fire album is really awesome. Carlos
santana played this show together with his brother Jorge Santana. Once you hear the song
you just feel like dancing to the rythm of the song. It is really worth learnig it. So i 
hope you'll like it. Enjoy.

symbols:
| /   slide up
| \   slide down
| h   hammer-on
| p   pull-off
| ~   vibrato
| +   harmonic
| x   Mute note
| b   Bend
| pb  Pre-bend
| br  Bend release
| pbr Pre-bend release
| brb Bend release bend


Jorge Santana (2:17)

e|----------------12-------------------------------------------|
B|-------12-12-13----12-13-12----------10/12-1212-12-13-12-----|
G|-10/12----------------------12---------------------------14--|
D|-------------------------------14~~~-------------------------|
A|-------------------------------------------------------------|
E|-------------------------------------------------------------|

e|-------------------------------------------------------------------------|
B|-15h17-15-13-15-13-12-13-12----12----------------------------------------|
G|----------------------------14----14-12-14--12----------------1212121212-|
D|-----------------------------------------------14--1414141414------------|
A|-------------------------------------------------------------------------|
E|-------------------------------------------------------------------------|

                                         A5
e|---------------------------------------17-17171717\---------------------|
B|------------12121212-15-13-12----12~~--17-17171717\---------------13\---|
G|-1414141414-------------------14-------14---------\--14~-12-14-14-------|
D|------------------------------------------------------------------------|
A|------------------------------------------------------------------------|
E|------------------------------------------------------------------------|

   A5                                     A5
e|-17-17171717\---------------------------17-17171717\---------------|
B|-17-17171717\---------------------------17-17171717\-----15^-------|
G|-14---------\-12/14-12------------------14---------\--14-----14-14-|
D|------------------------14-12\-/14-/14-----------------------------|
A|-------------------------------------------------------------------|
E|-------------------------------------------------------------------|

e|-------------------------------------------------------------|
B|--------------------------------12---------------------------|
G|-/14-12-------------------12-14----14-12-----12-14-12-14~----|
D|--------14-12-14-12----15----------------15------------------|
A|-------------------------------------------------------------|
E|-------------------------------------------------------------|

e|---------------------------------------------------------------|
B|-----13-12~-----13-12~-----13-12~------------------------------|
G|-/14--------/14--------/14--------14-12-12^--------------------|
D|--------------------------------------------14-12----12-14-12--|
A|--------------------------------------------------15-----------|
E|---------------------------------------------------------------|

e|----------------12-13-15-17-19-20-20^-20^^-20^-20\---17-19-20-20-20p19p17-|
B|----13-12-13-15-----------------------------------------------------------|
G|-14-----------------------------------------------------------------------|
D|--------------------------------------------------------------------------|
A|--------------------------------------------------------------------------|
E|--------------------------------------------------------------------------|

e|--17-19-20-(20)p19p17--17-19-20-20^-20^-20^-20^-20^^-20^-20^-20^-20^---|
B|---------------------------------(listen to the song the bends)--------|
G|-----------------------------------------------------------------------|
D|-----------------------------------------------------------------------|
A|-----------------------------------------------------------------------|
E|-----------------------------------------------------------------------|

e|-17-20-19-17-----------------------------------------------------|
B|-------------20-18-17----17----17~-17--------------------20b22~--|
G|----------------------19----19--------19p17-17-------------------|
D|-----------------------------------------------17-17-19----------|
A|-----------------------------------------------------------------|
E|-----------------------------------------------------------------|

e|--------------------------------------------------------------------|
B|-17-20b22r20p17-20-20b22r20p17-20-20b22^^~-20^-20^-20^--20^-20^-----|
G|--------------------------------------------------------------------|
D|--------------------------------------------------------------------|
A|--------------------------------------------------------------------|
E|--------------------------------------------------------------------|

e|---------------------20-19-17---------------------------------------------|
B|-20b22r21b22r20--19-----------20-18--18p17-17----17--17----------17-------|
G|----------------------------------------------19--------19b20r19----17-17-|
D|--------------------------------------------------------------------------|
A|--------------------------------------------------------------------------|
E|--------------------------------------------------------------------------|

e|---------------------------------------------------------------------------|
B|----17----------17----17----------17--------------17-----17----17---17--17-|
G|-19----19b20r19----17----19b20r19----17-17-19-19^----19^----19^--19^--19^--|
D|---------------------------------------------------------------------------|
A|---------------------------------------------------------------------------|
E|---------------------------------------------------------------------------|

e|--------------------------------------------------------------------|
B|----17---17---17---17---17---17---17-----20-18-18p17----17----------|
G|-19^--19^--19^--19^--19^--19^--19^--19^--------------19-------------|
D|--------------------------------------------------------------------|
A|--------------------------------------------------------------------|
E|--------------------------------------------------------------------|

Carlos Santana (3:46)

e|--121212-13-12-10---13-10--121212-13-12-16^^-12----10/12------------------|
B|---------------------------------------------------------15-13-12---13-12-|
G|------------------------------------------------------------------14------|
D|--------------------------------------------------------------------------|
A|--------------------------------------------------------------------------|
E|--------------------------------------------------------------------------|

e|---------------------------------------------121212~----19-19----19-19-|
B|--------------------15-13-12----12-----12-13---------17-------17-------|
G|-14-12-12h14p12--------------14-----14---------------------------------|
D|----------------14-----------------------------------------------------|
A|-----------------------------------------------------------------------|
E|-----------------------------------------------------------------------|

e|----19-19----17-19-20-19----------------------------12----12----------|
B|-17-------17--------------/13-12-----------12-13-15----13----15-12-15-|
G|---------------------------------14-12-14-----------------------------|
D|----------------------------------------------------------------------|
A|----------------------------------------------------------------------|
E|----------------------------------------------------------------------|

e|-55555-5--55-5-5-7-7---8---10--12--13--18p17-1919191919-1919191919--20p17-|
B|-------8^----8^----10^-11^-13^-15^-16^------------------------------------|
G|--------------------------------------------------------------------------|
D|--------------------------------------------------------------------------|
A|--------------------------------------------------------------------------|
E|--------------------------------------------------------------------------|

                                                       G5        A5
e|--19h20p19p17------12-------------15-----14-14h15p14-151515151517171717-|
B|----------------------13-15-15-17-----17-------------151515151517171717-|
G|----------------14-----------------------------------121212121214141414-|
D|------------------------------------------------------------------------|
A|------------------------------------------------------------------------|
E|------------------------------------------------------------------------|

e|-20p17-20p17-19p17--17-20p19p17-20p19p17-20p19p17-20p19p17-20p19p17-20--|
B|------------------------------------------------------------------------|
G|------------------------------------------------------------------------|
D|------------------------------------------------------------------------|
A|------------------------------------------------------------------------|
E|------------------------------------------------------------------------|

e|-20^-20^-20^--20-17-----------------------17-17-17-17-16-16-13-13-12-12-|
B|--------------------20-17-----------------------------------------------|
G|--------------------------19^-19-17-------------------------------------|
D|------------------------------------19----------------------------------|
A|------------------------------------------------------------------------|
E|------------------------------------------------------------------------|

e|----------12-12h13p12----------12----------12-1212~--121212----12-13-13h14-|
B|-13-12-13-------------13-12-13----13-12-13------------------13-------------|
G|---------------------------------------------------------------------------|
D|---------------------------------------------------------------------------|
A|---------------------------------------------------------------------------|
E|---------------------------------------------------------------------------|

e|-12121212-13-14----12121212--13-14-17-14-1-12-12-13p12-|
B|----------------13-------------------------------------|
G|-------------------------------------------------------|
D|-------------------------------------------------------|
A|-------------------------------------------------------|
E|-------------------------------------------------------|

e|----------------------12/////13////14///15///17//19//20//-20^-17-|
B|-15-13-12----12-13-15--------------------------------------------|
G|----------14-----------------------------------------------------|
D|-----------------------------------------------------------------|
A|-----------------------------------------------------------------|
E|-----------------------------------------------------------------|

e|--------------------------121212151212131212151212121312121215121212131212-|
B|-171717171717201718171717------------(listen to the song)------------------|
G|---------------------------------------------------------------------------|
D|---------------------------------------------------------------------------|
A|---------------------------------------------------------------------------|
E|---------------------------------------------------------------------------|

e|-121512121213121212121212---121212-13-12--10-13-10--121212-13-12--16^-16--|
B|--------------------------------------------------------------------------|
G|--------------------------------------------------------------------------|
D|--------------------------------------------------------------------------|
A|--------------------------------------------------------------------------|
E|--------------------------------------------------------------------------|

e|-12-12--000-12-000-10-000-8-000-10-000-8-000-12-12-------------------------|
B|---------------------------------------------------13-12p10----10-10-10-10-|
G|------------------------------------------------------------12-------------|
D|---------------------------------------------------------------------------|
A|---------------------------------------------------------------------------|
E|---------------------------------------------------------------------------|

e|------------121212\---|
B|-12-13----------------|
G|-------(12)-----------|
D|----------------------|
A|----------------------|
E|----------------------|

second solo Carlos Santana (5:22)

e|----------------------------12----------------------17--17-19---17--17-19-|
B|---------------10--12-13-15----15-13p12-15p13p12--17--17------17--17------|
G|--------7-9-10------------------------------------------------------------|
D|-7-9-10-------------------------------------------------------------------|
A|--------------------------------------------------------------------------|
E|--------------------------------------------------------------------------|

e|-20-19-20-20p19-17-20p19-17----17--------------------------------|
B|----------------------------20----20-17------------------17------|
G|----------------------------------------19^r-17----17-19----19---|
D|------------------------------------------------19---------------|
A|-----------------------------------------------------------------|
E|-----------------------------------------------------------------|

e|----------12----------------12--------------12--------------12----------|
B|-------13--------------1313----15--------13--------------13----15-13-15-|
G|----14----------141414----------------14----------141414----------------|
D|-14----------14--------------------14----------14-----------------------|
A|------------------------------------------------------------------------|
E|------------------------------------------------------------------------|

e|----------12--------------------------17-17---17-17--17-17------19-19-|
B|-------13-----------------17-17p15--17-----17------17-----17-17-------|
G|----14----------14141414----------------------------------------------|
D|-14----------14-------------------------------------------------------|
A|----------------------------------------------------------------------|
E|----------------------------------------------------------------------|

e|----19----19-20-20p19p17-20-20p19p17-20-20p19p17--20^-20^-20^-20-17-----|
B|-17----17-----------------------------------------------------------20--|
G|------------------------------------------------------------------------|
D|------------------------------------------------------------------------|
A|------------------------------------------------------------------------|
E|------------------------------------------------------------------------|

e|-17-20-17-----17-20-17-----15^-(keep picking the note while---|
B|----------20^----------20--------it is bend)------------------|
G|--------------------------------------------------------------|
D|--------------------------------------------------------------|
A|--------------------------------------------------------------|
E|--------------------------------------------------------------|

   Am         A5
e|-5-5-5-5----17-17\-----|
B|-5-5-5-5----17-17\-----|
G|-5-5-5-5----14-14\-----|
D|-7-7-7-7---------------|
A|-7-7-7-7---------------|
E|-----------------------|

I hope you'll liked it. If there are any comments corrections tips etc. all are welcome.
My email is given so if anything is there you'll can contact me.





Comments


Popular Carlos Santana tabs & chords
The Sensitive Kind Bass Tabs
Im Feeling You Chords
Maria Maria Chords
Corazon Espinado 1 Tabs
Hoy Es Adios Intro Tabs
Hoy Es Adios Intro 1 Tabs
Into The Night 2 Tabs
Samba Pa Ti Tabs
Singing Winds Crying Beasts Tabs
Evil Ways Ukulele


Song lyrics



↑ Back to top | Tablatures and chords are parodies/interpretations of the original songs. You may use it for private study, scholarship, research or language learning purposes only
© 2014 AZChords.com Contact us | Privacy policy | DMCA | Add/correct tabs | Request tabs | Top 50 tabs