>
 >
Black Magic Woman

Black Magic Woman Bass Tabs

Carlos Santana - Black Magic Woman chords, tabs, tablatures, lyrics

Guitar lessons | Add/correct | Request | Top 50 tabs Artists:  A B C D E F G H I J K L M N O P Q R S T U V W X Y Z 0-9

Black Magic Woman Bass Tabs – Carlos Santana

CD, Sheet music, Poster

Do you like Black Magic Woman? Share with your friends now
Bass TabsBass Tabs v2ChordsTabsTabs v2Tabs v3Tabs v4Ukulele
Black magic woman - Santana

Alot of the bass is fun little improvs on the regular line. I threw in
some of the more noticable ones (or how i interpreted them), but at
any time feel free to refer back to the regular line to make your own.

Thanks to Achilles for the motivation and basic template.


			    x4
G|--------|------------------|-----------------------------------------|
D|--------|:--7/3-----------:|---7/3--------55-------55--5/7-----------|
A|-05-----|:-----5---05-5---:|------5--5---5----5---5-------5--055--05-|
E|--------|------------------|----------3--------3---------------------|

-----------------------------------------|
-------------55-------55--5/7------------|
--055--5----5---5----5-------55----05----|
--------3--------3-----------------------|


G|-----5575----5575--------------------5575----5575-------------------|
D|----7-------7--------5575----5575---7-------7--------3353----3353---|
A|-5-------5----------7-------7----5-------5----------5-------5-------|
E|-----------------5-------5-----------------------3-------3----------|

-------5575------------5575----550-------|
------7--------5575---7-------7---3h5p30-|
---5----------7----5-------5-------------|
-----------5-----------------------------|

	     x7
G|------5575--|-------------|
D|:----7-----:|-------------|
A|:-5--------:|--end on-5---|
E|------------|-------------|


G|-----5575----5575--------------------5575----55---------------------|
D|----7-------7--------5575----5575---7-------7--765----3353----3353--|
A|-5-------5----------7-------7----5-------5---------3h5-------5------|
E|-----------------5-------5--------------------------------3---------|

-------5575------------5575--------------|
------7--------5575---7------------------|
---5----------7----5-------5-------------|
-----------5-----------------------------|


G|-----5575----55----------------------5575-----5---------------------|
D|----7-------7--------5575----55-----7-------7----------3353----3353-|
A|-5-------5----------7-------7--765-------5----------3h5-------5-----|
E|---------------765-------5----------------------4-3--------3--------|

-------5575------------5575--------------|
------7--------5575---7------------------|
---5----------7----5-------bass drum-----|
-----------5-----------------------------|


GUITAR SOLO START, REGULAR FIRST TIME,
SECOND TIME DOODLE BASED ON GUITAR SOLO
G|-----5575----5575--------------------5575----5575-------------------|
D|----7-------7--------5575----5575---7-------7--------3353----3353---|
A|-5-------5----------7-------7----5-------5----------5-------5-------|
E|-----------------5-------5-----------------------3-------3----------|

-------5575------------5575------|-------|
------7--------5575---7---------:|-------|
---5----------7----5-------5----:|-------|
-----------5---------------------|-------|


G|-----5575----5575--------------------5575----55---------------------|
D|---77------77--------5575----5575---7-------7---------3353----3353--|
A|-5-------5----------7-------7----5-------5---------3h5-------5------|
E|-----------------5-------5---------------------543--------3---------|

-------5575------------5575>>-------------|
------7--------5575---7---->>--NEXT PART--|
---5----------7----5----------------------|>-IMMEDIATELY
-----------5--------------->>-------------|

			    x3
<<--------|------------------|---75------------------------------------|
<<--------|:--7/3-----------:|-----75----------------------------------|
<<5---05-5|:-----5---05-5---:|-------87h8p7535---5---5---5---5---5---5-|
<<--------|------------------|-----------------5---5---5---5---5---5---|


An almighty THIRTY SEVEN TIMES!!!!				    x8
G|---|------------|-------------------------------------|------------|
D|---|:----------:|-------------------------------------|:----------:|
A|---|:5-0-35-0-7:|--3--2-05-----3--2-05------3--2-05---|:5-0-35-0-7:|
E|---|------------|-------------------------------------|------------|

--------------------------|
--------------------------|
--3--2-0~~~~end on this---|
--------------------------|


This is my first tab I've actually posted, if you want a tab done,





Comments


Popular Carlos Santana tabs & chords
Soul Sacrifice 2 Bass Tabs
Amazing Grace Intro Chords
America Tabs
Chill Out Tabs
Dirty Dancin Tabs
I Dont Wanna Lose Your Love Tabs
Maria Maria Tabs
Smooth Tabs
Smooth 2 Tabs
You Are My Kind Intro Tabs


Song lyrics



↑ Back to top | Tablatures and chords are parodies/interpretations of the original songs. You may use it for private study, scholarship, research or language learning purposes only
© 2014 AZChords.com Contact us | Privacy policy | DMCA | Add/correct tabs | Request tabs | Top 50 tabs