>
 >
Bella 1

Bella 1 Guitar Tabs

Carlos Santana - Bella 1 chords, tabs, tablatures, lyrics

Guitar lessons | Add/correct | Request | Top 50 tabs Artists:  A B C D E F G H I J K L M N O P Q R S T U V W X Y Z 0-9

Bella 1 Guitar Tabs – Carlos Santana

CD, Sheet music, Poster

Do you like Bella 1? Share with your friends now
TabsTabs v2
Song Title: Bella
Artist/Band: Carlos Santana


Symbols:

h=hammer-on
p=pull-off
/=slide-up
~=left hand vibrato
b=bend
r=release bend
///=tremolo picking


CLEAN CHANNEL:
e|-------------------|-------------------|
B|-------------------|---8-6-------------|
G|-5p4---4-5-7/9-7---|-7-----9p7-9-7/9---|
D|-----7-------------|-------------------|
A|-------------------|-------------------|
E|-------------------|-------------------|
  0:03

e|-------------------|-------------------|
B|-------------------|---8-6-------------|
G|-5-4---4-5-7/9-7---|-7-----9p7-9-7/9---|
D|-----7-------------|-------------------|
A|-------------------|-------------------|
E|-------------------|-------------------|
  0:16

e|------------8-10~~~---|-10-8-7-8~~~----|
B|-----8-8/10-----------|----------------|
G|-7/9------------------|----------------|
D|----------------------|----------------|
A|----------------------|----------------|
E|----------------------|----------------|
  0:28

e|--------------------|--------------|
B|--------------------|--------------|
G|-5-4---4-5--7/9-7---|-5h7--5p4h5---|
D|-----7--------------|--------------|
A|--------------------|--------------|
E|--------------------|--------------|
  0:43

e|-///8///10///12///-///8///10///12///-//8///10///12///-///8///10///12///--|
B|-------------------------------------------------------------------------|
G|-------------------------------------------------------------------------|
D|-------------------------------------------------------------------------|
A|-------------------------------------------------------------------------|
E|-------------------------------------------------------------------------|
  0:53

e|-///8///10///12///-///8///10///12///-///8///10///12///-///8///10///12///--|
B|--------------------------------------------------------------------------|
G|--------------------------------------------------------------------------|
D|--------------------------------------------------------------------------|
A|--------------------------------------------------------------------------|
E|--------------------------------------------------------------------------|


e|--------8h10--|--8p5--5p0---|
B|--8/10--------|-------------|
G|--------------|-------------|
D|--------------|-------------|
A|--------------|-------------|
E|--------------|-------------|
  0:58

e|-----------------------------------------------------|
B|---------8-10-8h10-10-10-----------------------------|
G|-7h9---------------------7-7-7h9-9-9-5-5-5h7p5-------|
D|-----------------------------------------------5h7---|
A|-----------------------------------------------------|
E|-----------------------------------------------------|
  1:03

e|-5-5-------5--------------|---------------------------------10b12--|
B|-5-5---5---5---5---3---5--|-13p12-----------13p12------------------|
G|-------4-------4---2---4--|-------12h14-----------12h14------------|
D|--------------------------|----------------------------------------|
A|--------------------------|----------------------------------------|
E|--------------------------|----------------------------------------|
  1:13

e|-15-13-12-13-----10-12-10--|----13-12-10-8-10-10---|
B|---------------------------|-13--------------------|
G|---------------------------|-----------------------|
D|---------------------------|-----------------------|
A|---------------------------|-----------------------|
E|---------------------------|-----------------------|
  1:30

e|--------------------------------------------------------|
B|-15-12-15-12--12-10-12-10--10--13\12---10-10-10--10-10--|
G|--------------------------------------------------------|
D|--------------------------------------------------------|
A|--------------------------------------------------------|
E|--------------------------------------------------------|


e|---------------12------|---------------------|
B|-10---10-12-13----13---|--13/15--------------|
G|----9------------------|---------------------|
D|-----------------------|---------------------|
A|-----------------------|---------------------|
E|-----------------------|---------------------|
  1:37

e|----------------------------------|
B|-13/15--13-10-13--10--------------|
G|---------------------9-7-5--7/9---|
D|----------------------------------|
A|----------------------------------|
E|----------------------------------|
  1:43

e|----------------------------------------------------|
B|-13b15---13-12-13-12--10------10--------------------|
G|-------------------------12------12--9-. . . ???----|couldn't descifrate this
D|----------------------------------------------------|
A|----------------------------------------------------|
E|----------------------------------------------------|
  1:46

e|----------------------------|
B|-----------------------5----|
G|-5---------------------5----|
D|---7--5---------5h7---------|
A|--------7--5--7-------------|
E|----------------------------|
  1:50

e|-------------8h10--|-10b12-----------|
B|-8/10---10---------|--------15p13----|
G|-7/9---------------|-----------------|
D|-------------------|-----------------|
A|-------------------|-----------------|
E|-------------------|-----------------|
  1:53

e|---------------------------------------------------------------|
B|---------------------------------------------------------------|
G|-5/7-7-7----5/7-7-7----5/7-7-7----5/7-7-7----5/7-7-7-5/7-7-7---|
D|---------------------------------------------------------------|
A|---------------------------------------------------------------|
E|---------------------------------------------------------------|
  1:59


e|---------------------------------------------|
B|---------------------------------------------|
G|-5/7----5h7h5h7---5--------------------------|
D|---------------------7--5--------------------|
A|---------------------------7--5--------------|
E|--------------------------------8--5--3--0---|


BASS LINE:

G|------------------------|------------------------|
D|--------0-2-------0-2---|--------0-2-------0-2---|
A|-0-3-0-------0-3--------|-0-3-0-------0-3--------|
E|------------------------|------------------------|
  2:07


SECOND PART:

e|---------------|
B|---------------|
G|------------5--|
D|----5--5/7-----|
A|--7------------|
E|---------------|
  2:25

e|-----------------------|----------------------------|
B|-------13--13/15--15---|-13h15p13--12-13-12---------|
G|-12h14-----------------|--------------------14-14---|
D|-----------------------|----------------------------|
A|-----------------------|----------------------------|
E|-----------------------|----------------------------|
  2:30

e|---------------------12-------|
B|-----------------13------13---|
G|-14p12----12-14---------------|
D|-------13---------------------|
A|------------------------------|
E|------------------------------|
  2:36

e|--------------------------------|--10b12------|
B|-13p12-------------13p12--------|-------------|
G|-------12-15-------------12-15--|-------------|
D|--------------------------------|-------------|
A|--------------------------------|-------------|
E|--------------------------------|-------------|
  2:42


SOLO CHANNEL:
e|-10b12--------------|
B|----------13p10-----|
G|--------------------|
D|--------------------|
A|--------------------|
E|--------------------|
  2:51

e|-15b17--12----15b17r15--12---|-17-19-20-19-17~~~---|
B|-----------------------------|---------------------|
G|-----------------------------|---------------------|
D|-----------------------------|---------------------|
A|-----------------------------|---------------------|
E|-----------------------------|---------------------|
  2:58

e|-17-19-20-19---17-19-20-22---|
B|-----------------------------|
G|-----------------------------|
D|-----------------------------|
A|-----------------------------|
E|-----------------------------|
  3:03

e|-22---22-22-22---22-22-22---20/22---|
B|------------------------------------|
G|------------------------------------|
D|------------------------------------|
A|------------------------------------|
E|------------------------------------|
  3:05

e|-22-20-17----------------------------------------|
B|----------20--17--15h17p15--13----13h15--13h15---|
G|-------------------------------14----------------|
D|-------------------------------------------------|
A|-------------------------------------------------|
E|-------------------------------------------------|
  3:08

e|----------------------------------------------------------------------------|
B|-15/17-17-17-17-17-17-17--15/17-17-17-17-17-17-17--15/17-17-17-17-17-17-17--|
G|----------------------------------------------------------------------------|
D|----------------------------------------------------------------------------|
A|----------------------------------------------------------------------------|
E|----------------------------------------------------------------------------|
  3:11

e|---------------------------------------------|
B|-15/17-17---15/17-17---15/17-17---15/17-17---|
G|---------------------------------------------|
D|---------------------------------------------|
A|---------------------------------------------|
E|---------------------------------------------|


e|-15-------------------------|
B|----17-15-13--15p13-13-15---|
G|----------------------------|
D|----------------------------|
A|----------------------------|
E|----------------------------|


CLEAN CHANNEL:

e|-----------------------------------------------------------|
B|------8--10--8h10--10--------------------------------------|
G|-7h9----------------------7-7--7h9--9-9--5-5--5-5--5h7-5---|
D|-----------------------------------------------------------|
A|-----------------------------------------------------------|
E|-----------------------------------------------------------|
  3:16

e|-5-5---8-8---5-5------|------------------|
B|-5-5---8-8---5-5---5--|------------------|
G|-------------------7--|-////9---8-7-6-5--|
D|----------------------|------------------|
A|----------------------|------------------|
E|----------------------|------------------|
  3:24

e|------------------------------------------------------|
B|-10-10-13~-10-------10-13~-10---10-13~-10--------10---|
G|--------------9--12------------------------9--12------|
D|------------------------------------------------------|
A|------------------------------------------------------|
E|------------------------------------------------------|
  3:34

e|-10p8-8--8-10p8-8--8-10p8-8--8-10p8-8--8-10p8-8---|
B|--------------------------------------------------|
G|--------------------------------------------------|
D|--------------------------------------------------|
A|--------------------------------------------------|
E|--------------------------------------------------|
  3:42

e|-----------------------------------------------------------------------|
B|-5-5-5-5-5-5-5-5-5----8-8-8-8-8-8-8-8-8----10-10-10-10-10-10-10-10-10--|
G|-----------------------------------------------------------------------|
D|-----------------------------------------------------------------------|
A|-----------------------------------------------------------------------|
E|-----------------------------------------------------------------------|
  3:46

BASS LINE:

G|------------------------|------------------------|
D|--------0-2-------0-2---|--------0-2-------0-2---|
A|-0-3-0-------0-3--------|-0-3-0-------0-3--------|
E|------------------------|------------------------|
  3:53


e|-------|
B|-------|
G|-7/9---|
D|-------|
A|-------|
E|-------|
  4:17

e|-///8///10///12///--///8///10///12///--///8///10///12///-///8///10///12///--|
B|----------------------------------------------------------------------------|
G|----------------------------------------------------------------------------|
D|----------------------------------------------------------------------------|
A|----------------------------------------------------------------------------|
E|----------------------------------------------------------------------------|
  4:23     . . . END 





Comments


Popular Carlos Santana tabs & chords
I Dont Wanna Lose Your Love Chords
Just Feel Better 1 Chords
Smooth 1 Chords
Into The Night 1 Tabs
Into The Night 4 Tabs
Marathon Tabs
Maria Maria Intro Tabs
Singing Winds Crying Beasts Tabs
Victory Is Won 1 Tabs
Winning Tabs


Song lyrics



↑ Back to top | Tablatures and chords are parodies/interpretations of the original songs. You may use it for private study, scholarship, research or language learning purposes only
© 2014 AZChords.com Contact us | Privacy policy | DMCA | Add/correct tabs | Request tabs | Top 50 tabs