» » »

Carlos Santana, Aqua Marine Tabs (ver.3)

Artists:  A B C D E F G H I J K L M N O P Q R S T U V W X Y Z # 

Aqua Marine Tabs (ver.3)

Carlos Santana Tabs
Rating:
5/5 (1 vote)
Aqua Marine lessons Tabs too difficult? Try these video lessons and learn fast
                Song title: Aqua Marine



Intro part:

E|---------0------------
B|-------0------7-7----7
G|-----7------7------7--
D|---5------------------
A|-7--------------------
E|----------------------

Then, this part is next(this is the melody):
E|------12-14-15p14----------------|-------12-14-15p14-----------------|
B|12-15-------------15-15-12-15-12-|-12-15-------------15-15-12-/17-12-|
G|---------------------------------|-----------------------------------|
D|---------------------------------|-----------------------------------|
A|---------------------------------|-----------------------------------|
E|---------------------------------|-----------------------------------|

Chords for keyboard part: B A  G E

bass line here
|-----9---7-7-----------------|-----9---7-7--------------------------|
|---------------7-7-8-9---5-7-|---------------7-7-8-9---5-7----------|
|-7-7---7-----7---------7-----|-7-7---7-----7---------7--------------|
|-----------------------------|--------------------------------------|

guitar solo here
E|----------------------------------------------------------------|
B|----------------------------------------------------------------|
G|-----------------------------------------------------7^-7^p5p(0)|
D|-------------------5--------------------------------------------|
A|-5h7-----------5-7---5h7p(5)p(0)--------------------------------|
E|-----------------------------------5^-^5\3\0--------------------|

E|-------------------------------------------------------|
B|----8----------------------5---------------------------|
G|-7^---7^p5p(0)-----7^-7^-^---7-4-----------------------|
D|---------------------------------7-7^-^7-5-7^-7^-------|
A|-------------------------------------------------------|
E|-------------------------------------------------------|

E|----------------------------------------------------------------|
B|----------------------------------------------------------------|
G|-------12-----12-----12-----12-----12-----12-----12----12-------|
D|-12-14----14~----14~----14~----14~----14~----14~----14----------|
A|----------------------------------------------------------------|
E|----------------------------------------------------------------|

E|---------12-----------------------------------------------------|
B|------12----15-12-15^-15^--p12------15^-15^---------------------|
G|--14^-------------------------------14^-14^-^14-12--------------|
D|---------------------------------------------------14-----------|
A|----------------------------------------------------------------|
E|----------------------------------------------------------------|

E|----------------------------------------------------------------|
B|----------------------------------------------------------------|
G|----------------------------------------------------------------|
D|-12-14p12-14-14-----12-14p12-14-14--12-14p12-14-14--------------|
A|----------------------------------------------------------------|
E|----------------------------------------------------------------|

E|----------------------------12-14-14p12-----------17-17-17-17-17|
B|----------------------12-15-------------15-14-------------------|
G|-------------11-12-14-------------------------------------------|
D|-12-14p12-14----------------------------------------------------|
A|----------------------------------------------------------------|
E|----------------------------------------------------------------|

E|-14-15-17^-17--15-14-----12------------------15-----12-----12---|
B|-------------------------15^-^-^15-12-----15^---15^----15^---15^|
G|----------------------------------------------------------------|
D|----------------------------------------------------------------|
A|----------------------------------------------------------------|
E|----------------------------------------------------------------|

E|-12----12---12---12----12------------------------------12-------|
B|----15^--15^--15^--15^----15-12---------------------12----15-12-|
G|--------------------------------14^-^14-12----12-14^------------|
D|-------------------------------------------14-------------------|
A|----------------------------------------------------------------|
E|----------------------------------------------------------------|

E|-----------------
B|-----------------
G|-14^-12-14^-12---
D|-----------------
A|-----------------
E|-----------------solo end
            
Submit corrections

comments powered by Disqus
↑ Back to top | Carlos Santana Tabs for Aqua Marine. Lyrics for acoustic guitar and electric guitar. Tablatures and chords are parodies/interpretations of the original songs. You may use it for private study, scholarship, research or language learning purposes only