» » »

Low Budget Slow Motion Soundtrack Song For The Leaving Scene Tabs (ver.1)

Artists:  A B C D E F G H I J K L M N O P Q R S T U V W X Y Z # 

Low Budget Slow Motion Soundtrack Song For The Leaving Scene Tabs (ver.1)

Carissa\\S Wierd
Rating:
0/5 (0 votes)

Hard to play? Try these video lessons and learn fast.
                Slow Motion Soundtrack Song For The Leaving Scene - Carissa's Wierd

Tuning: Eb Ab Db Gb Bb Eb

 The other tabs weren't so great so i gave it a try

 Play these chords throughout the entire song 
 Listen to the song for timing   

      A      Amaj7 A     F#m                 E    E6 E7 E6  E
e|-------0----------------5--5--5--4--5--5---------------------------------|
B|----2--2--2--2---2--2---7--7--7--7--7--7---0--0--2--3--2--0--------------|
G|----2--2--2--1---2--2---6--6--6--6--6--6---1--1--1--1--1--1--------------|
D|----2--2--2--2---2--2---4--4--4--4--4--4---2--2--2--2--2--2--------------|
A|-------------------------------------------2--2--2--2--2--2--------------|
E|-------------------------------------------------------------------------|

     D9    Dmaj7 D9
e|---0--0--0--0--0--0------------------------------------------------------|
B|---3--3--3--2--3--3------------------------------------------------------|
G|---2--2--2--2--2--2------------------------------------------------------|
D|---0--0--0--0--0--0------------------------------------------------------|
A|-------------------------------------------------------------------------|
E|-------------------------------------------------------------------------|

Pretty much the only other riff is:

                Play x6
e|--------------------|---------------------------------------------------|
B|--------------------|---------------------------------------------------|
G|----9---7-----------|-----9--9--9--9--9--9--9--9------------------------|
D|------------9---7---|---------------------------------------------------|
A|--------------------|---------------------------------------------------|
E|--------------------|---------------------------------------------------|
            
Hard to play? Try these video lessons and learn fast. | Correct




comments powered by Disqus
↑ Back to top | Tablatures and chords are parodies/interpretations of the original songs. You may use it for private study, scholarship, research or language learning purposes only