» » »

Carey Mariah, Without You Tabs (ver.2)

Artists:  A B C D E F G H I J K L M N O P Q R S T U V W X Y Z # 

Without You Tabs (ver.2)

Carey Mariah Tabs
 Rating:
4/5 (4 votes)
Without You lessons Tabs too difficult? Try these video lessons and learn fast
                This is by far not the complete arrangement, but maybe it will help:

As usual, all guitars are tuned down one half step.

  Intro:
    (acoustic guitar)

eb:---------------------------------------------------------------------|
Bb:-3--5-----------------------------------------------------3--5h6h5---|
Gb:-4-----------------------------------------------2--4--5-------------|
Db:----------4--5--4--2--0--2--------------2--4--5----------------------|
Ab:----------------------------3-----0--3-------------------------------|
Eb:---------------------------------------------------------------------|

eb:--------------------------------|      I think there are some other
Bb:-3---5--------------------------| acoustic guitars in the background
Gb:--------------------------------| here, but this guitar plays the
Db:---------4--5--4--2--4--2-------|  main melody of the intro.
Ab:-----------------------------3--|
Eb:--------------------------------|

   (electric with massive sustain)
   eb:------------------------------------------------------|
   Bb:---7b(9)~----5h7--5-----3h5--3------------------------|
   Gb:---7b(9)~----5h7--5-----4h5--4--4--5b(7)--5--4--0--2--|
   Db:--------------------------------5--7b(9)--7--5--------|
   Ab:------------------------------------------------------|
   Eb:------------------------------------------------------|


       And here is the main riff played throughout the song
       and slightly varied in some places. You've probably
       already figured this out.

	  (acoustic guitar)
	      Am                  G        D
	      eb:----------------------3--------2--------2--|
	      Bb:--0h1--------1-----------3--------3--------|
	      Gb:-------2--------2-----------0--------2-----|
	      Db:----------2--------2-----------0-----------|
	      Ab:--0----------------------------------------|
	      Eb:----------------------3--------------------|


I also know incomplete versions of some other songs on that album, if
you're intersted.

-Jeremy
-- 
|__________________________/     Low Budget Land!   \____the_time"___________/
            
Submit corrections

comments powered by Disqus
↑ Back to top | Carey Mariah Tabs for Without You. Lyrics for acoustic guitar and electric guitar. Tablatures and chords are parodies/interpretations of the original songs. You may use it for private study, scholarship, research or language learning purposes only