» » »

Cardigans, Holy Love Tabs (ver.1)

Artists:  A B C D E F G H I J K L M N O P Q R S T U V W X Y Z # 

Holy Love Tabs (ver.1)

Cardigans Tabs
 Rating:
4/5 (4 votes)
Holy Love lessons Tabs too difficult? Try these video lessons and learn fast
                
Standard tuning

Chords:
F#11 : 244300
Aadd9: 577600
E    : 022100
B    : x24442
F#   : 244322
E5   : x799xx
E5/Eb: x699xx
D5   : x577xx
A5   : 577xxx
F#5  : 244xxx
G    : 355433


CHORUS:

F#11 (slide to Aadd9)

Aadd9          E   B      F#         Aadd9
      When you love I can feel your love 
         E                  B         F#11 (slide to Aadd9)
Shooting holes in my stupid pride
Aadd9          E   B        F#         Aadd9
      When you love I don't fear your love,
           E                        B      F#11   F#5~~
Of all the angels you're the most divine

Holy love

VERSE:

E5                       E5/Eb  
     You can really have anything you want from me
D5                           A5
Anything you ask me to, I'll do
E5                  E5/Eb
     We can live in poverty or prosperity
D5                        F#5
Anything impossible, I'll try
                    Aadd9
You can really have everything you ask
            E
And I'll be intimate with you
                  B
Giving everything over
                     B         F#11   F#5~~   
To making everything right

Holy love

CHORUS:

F#11(slide to Aadd9)

Aadd9          E   B      F#         Aadd9
      When you love I can feel your love
         E                   B       F#11 (slide to Aadd9)
Shooting holes in my stupid pride
Aadd9          E   B        F#         Aadd9
      When you love I don't fear your love,
           E                        B      F#11   F#5~~
Of all the angels you're the most divine.

Holy love.

INTERLUDE: 

e|-7~----7-7--------------7-7--------------5-5----------|
B|-------------7h9-7------------7h9-7------------5h7-5--|
G|------------------------------------------------------|
D|-----------------------------------------0-4----------|
A|-7~----7-9-6------------6-9-5----------2-----4--------|
E|-----7----------------7-------------------------------|

VERSE:

E5                       E5/Eb
     You can really make anyone you want of me
D5                             A5
Anything you need tonight I'll be
E5                    E5/Eb
     Whether you want empathy, animosity
   D5                     F#5
An enemy or company, call me!
              Aadd9
I can even be nothing if you ask
            E
I'll turn invisible for you
                     B
I'm the bird on your shoulder
                           B        F#11   F#5~~
Singing psalms through the night
Of holy love

CHORUS:

F#11(slide to Aadd9)

Aadd9          E   B      F#        G
      When you love I can feel your love
                           F#
Throwing rocks through the windows of a monastery
G                      F#                     E5   E5/Eb     D5      F#11   F#5~~
Love makes me feel the super extra gravity of God, yeah, and life

OUTRO:

e|---------------------------------------------------------|
B|---------------------------------------------------------|
G|---------------------------------------------------------|
D|--------------4-4-4-3------------------4-----------------|
A|--------------4-4-4-4--------6---------2-----------------|
E|-----------------------------4---------------------------|
  When you love          I can feel your love

e|---------------------------------------------------------|
B|---------------------------------------------------------|
G|---------------------------------------------------------|
D|-----------4-----------------4-4--4-6~~------------------|
A|-----------1-----------------1-1--4-4~~------------------|
E|---------------------------------------------------------|
  Of all the angels you're the most divine
            
Submit corrections

comments powered by Disqus
↑ Back to top | Cardigans Tabs for Holy Love. Lyrics for acoustic guitar and electric guitar. Tablatures and chords are parodies/interpretations of the original songs. You may use it for private study, scholarship, research or language learning purposes only