» » »

Carcassi Matteo, Progressive Melodic Study Number Tabs (ver.2)

Artists:  A B C D E F G H I J K L M N O P Q R S T U V W X Y Z # 

Progressive Melodic Study Number Tabs (ver.2)

Carcassi Matteo Tabs
 Rating:
4/5 (4 votes)
Progressive Melodic Study Number lessons Tabs too difficult? Try these video lessons and learn fast
                This is the first study of Carcassi's famous "25 Studi Melodici E 
Progressivi" or "25 Progressive Melodic Studies" for the guitar.  This 
first one is in the key of C Major and is in 4/4 time.  Each note is an 
eighth note so I didn't bother putting the beat marks ( | ).  However, 
in the last 3 measures, I did put the beat marks since there are rests. 
 The 'q' means quarter note and the 'h' means half note.  It's a very 
melodic piece and is very classical and very catchy.  I will try to post 
more of the Carcassi studies.

e:----------------------------|-----0--------------------|
B:-------1--0-----------------|--------3--1--0-----------|
G:-------------2--0-----------|-----------------2--0-----|
D:-------------------3--2--0--|-----------------------3--|
A:----3-----------------------|--3-----------------------|
E:----------------------------|--------------------------|





e:-----3--1--0--------------|--------------------------|
B:--------------3--1--0-----|--------------------------|
G:-----------------------2--|--0-----------------------|
D:--2-----------------------|-----3--2--0-----------0--|
A:--------------------------|--------------3--2--0-----|
E:--------------------------|--------------------------|





e:--------------------------|--------------------------|
B:--------------------------|-----0--------------------|
G:-----0--------------------|--------2--0--------------|
D:--------4--2--0-----------|--------------4--2--0-----|
A:-----------------3--2--0--|-----------------------3--|
E:--3-----------------------|--3-----------------------|





e:--------------------------|--------------------------|
B:-----3--1--0--------------|--------------------------|
G:--------------2--0--------|--------------------------|
D:--------------------4--2--|--0--------------3--2--0--|
A:--2-----------------------|-----3--2--0--------------|
E:--------------------------|--------------3-----------|





e:-----------0--1--3--5--7--|--8--7--5--3--1--0--------|
B:-----1--3-----------------|--------------------3--1--|
G:--------------------------|--------------------------|
D:--------------------------|--------------------------|
A:--3-----------------------|--------------------------|
E:--------------------------|--------------------------|





e:--------------------------|--------------------------|
B:--0-----------------------|--------------------------|
G:--------------------------|--------------------------|
D:-----------------------0--|--2--1--2--3--2--0--------|
A:--------------0--2--3-----|--------------------3--2--|
E:-----0--2--4--------------|--------------------------|





e:-----------------0--2--4--|--5--3--1--0--1--0--------|
B:--------0--1--3-----------|--------------------3--1--|
G:-----2--------------------|--------------------------|
D:--------------------------|--------------------------|
A:--0-----------------------|--------------------------|
E:--------------------------|--------------------------|





e:--------------------------|--------------------------|
B:--0-----------------------|--------------------------|
G:--------------------------|--0-----0--2--0-----------|
D:-----------------0--2--4--|-----4-----------3--2--0--|
A:--------0--2--3-----------|--------------------------|
E:-----3--------------------|--------------------------|





e:-----------0--1--0--------|--------------------------|
B:-----1--3-----------3--1--|--0-----------------------|
G:--------------------------|--------------0-----------|
D:--------------------------|-----------0-----3--2--0--|
A:--3-----------------------|--------2-----------------|
E:--------------------------|-----3--------------------|





e:-----0--2--3--5--3--2--0--|--------------------------|
B:--------------------------|--4-----------0-----------|
G:--------------------------|-----------------2--0-----|
D:--------------------------|--------1--4-----------4--|
A:--3-----------------------|-----2--------------------|
E:--------------------------|--------------------------|





e:-----------0-----0-----0--|-----------1--0--1--0--1--|
B:--------0-----4-----4-----|--------0-----------------|
G:-----0--------------------|-----0--------------------|
D:--2-----------------------|--0-----------------------|
A:--------------------------|--------------------------|
E:--------------------------|--------------------------|





e:--0--3--1--0-----1--0-----|-----0--------------------|
B:--------------3--------3--|--1-----3--1--0--3--1--0--|
G:--------------0-----------|--2-----------------------|
D:--------------------------|--------------2-----------|
A:--3-----------------------|--------------------------|
E:--------------------------|--------------------------|





e:--------------------------|-----0--1--0--------------|
B:-----0--1--0--1--2--3--2--|--3-----------3--1--0-----|
G:--2-----------------------|-----------------------2--|
D:--3-----------------------|--0-----------------------|
A:--------------------------|--------------------------|
E:--------------------------|--------------------------|





e:--------------------0--1--|--3-----------------------|
B:-----------0--1--3--------|--------------------------|
G:-----0--2-----------------|--------------0-----------|
D:--------------------------|-----------0-----3--2--0--|
A:--------------------------|--------2-----------------|
E:--3-----------------------|-----3--------------------|





e:-----------0-----------3--|-----------8-----------3--|
B:--------1-----------3-----|--------8-----------3-----|
G:-----0-----------4--------|-----9-----------4--------|
D:--------------5-----------|--10----------5-----------|
A:--3-----------------------|--------------------------|
E:--------------------------|--------------------------|





e:-----------0-----------5--|-----------3-----------7--|
B:--------1-----------4-----|--------5-----------6-----|
G:-----0-----------5--------|-----5-----------7--------|
D:--------------4-----------|--5-----------5-----------|
A:--3-----------------------|--------------------------|
E:--------------------------|--------------------------|





e:------------8-----------3--|-----------0--------------|
B:---------8-----------3-----|--------1--------------3--|
G:------9-----------4--------|-----0--------------1-----|
D:--10-----------5-----------|-----------------2--------|
A:---------------------------|--3-----------2-----------|
E:---------------------------|--------------------------|





e:--------------------------|--------------------------|
B:-----------1-----------3--|-----------1-----------0--|
G:--------2-----------2-----|--------0-----------0-----|
D:-----2-----------3--------|-----2-----------0--------|
A:--0-----------------------|--------------------------|
E:--------------1-----------|--3-----------3-----------|





e:--------------------------|-----------0--1--3--5--7--|
B:--1--------------------0--|-----1--3-----------------|
G:-----------------0--2-----|--------------------------|
D:--------0--2--3-----------|--------------------------|
A:-----3--------------------|--3-----------------------|
E:--------------------------|--------------------------|




                               |     |     |     |
e:-----8--7--5--3--1--0-----|--------------------------|
B:-----------------------3--|-----1--0-----------------|
G:--5-----------------------|-----------2--0-----------|
D:--------------------------|-----------------3--2--0--|
A:--------------------------|--3-----------------------|
E:--------------------------|--------------------------|


    q    --rest here--      q  rest   q  rest      h         rest here
    |    |    |    |        |    |    |    |       |    |    |    |
e:-----------------------|------------0---------|--------------------||
B:-----------------------|--1---------1---------|--1-----------------||
G:-----------------------|--0---------0---------|--0-----------------||
D:-----------------------|--2-------------------|--2-----------------||
A:--3--------------------|--3---------3---------|--3-----------------||
E:-----------------------|----------------------|--------------------||

have tabbed out (Study 1 and 5).
            
Submit corrections

comments powered by Disqus
↑ Back to top | Carcassi Matteo Tabs for Progressive Melodic Study Number. Lyrics for acoustic guitar and electric guitar. Tablatures and chords are parodies/interpretations of the original songs. You may use it for private study, scholarship, research or language learning purposes only