>
 >
Lavaging Expectorate Of Lysergide Composition

Lavaging Expectorate Of Lysergide Composition Guitar Tabs

Carcass - Lavaging Expectorate Of Lysergide Composition chords, tabs, tablatures, lyrics

Guitar lessons | Add/correct | Request | Top 50 tabs Artists:  A B C D E F G H I J K L M N O P Q R S T U V W X Y Z 0-9

Lavaging Expectorate Of Lysergide Composition Guitar Tabs – Carcass

CD, Sheet music, Poster

Do you like Lavaging Expectorate Of Lysergide Composition? Share with your friends now
Tabs
Band: CARCASS



Tuning (Low - High): B E A D F# B
(segue from “Carneous Cacoffiny”)

A                                                            Play 5 times
|-----------------|-----------------|-----------------|------------------|
|------------7/10-|--------10\7-----|------------7/10-|9766--------7/10--|
|--------6/9-5/8--|---------8\5-9\6-|--------6/9-5/8--|----8755----5/8---|
|0-000-0-4/7------|0-000-0------7\4-|0-000-0-4/7------|--------7544------|

(lead: “Administration of toxic compounds” by M. Amott)
|---------------------------------|-----------------------------|
|/15p12---------------------------|15b17--15b17--15p13-12~~~~---|
|-------13------------------------|-----------------------------|
|----------15p12-----------dive---|-----------------------------|
|----------------14~~~~~~~-w/bar--|-----------------------------|
|--------------------------(0)\---|-----------------------------|
                               \

|-------15-------14~~~--|-------15-------14~~~---14-12-12-12-|
|/12-13----12-13--------|/12-13----12-13---------------------|
|-----------------------|------------------------------------|
|-----------------------|------------------------------------|
|-----------------------|------------------------------------|
|-----------------------|------------------------------------|

|12-15------------------------------|------------------------------------|
|------12----12---------------------|------------------------------------|
|---------14----14-14-12-11---------|------------------------------------|
|---------------------------14~~~~~-|14b16-14b16--(16)r14--14p12-14~~~~~-|
|-----------------------------------|------------------------------------|
|-----------------------------------|------------------------------------|

|-----------------------------------------------|
|-------------------15-12-15-12~~~~~-(12)\------|
|-/11~~~~~-11h12p11--------------------------9--|
|-----------------------------------------------|
|-----------------------------------------------|
|-----------------------------------------------|

  pick repeatedly
|--------------------------------------|-------------------|
|-----------------12h15--15b17--15b17--|-15b17~~~~~~~------|
|11~~~~~~~~-12h14----------------------|-------------------|
|--------------------------------------|-------------------|
|--------------------------------------|-------------------|
|--------------------------------------|-------------------|

B1
|------------------------|------------------------|
|------------------------|3-----3/4-3-------------|
|2-----2-----2-----3---5-|1-111-1/2-1-3-----3-5-3-|
|0-000-0-000-0-000-1-0-3-|------------1-111-1-3-1-|

B2
|------------------------|-------------------------|
|------------------------|3-----3/4-3--------------|
|2-----2-----2-----3---5-|1-111-1/2-1-3------3-5-3-|
|0-000-0-000-0-000-1-0-3-|------------1------1-3-1-|

B3
|------------------------|------------------------|
|------------------------|3-----3/4-3-------------|
|2-----2-----2-----3---5-|1-111-1/2-1-3-----3-5-2-|
|0-000-0-000-0-000-1-0-3-|------------1-111-1-3-0-|

B4
|------------------------|------------------------|
|------------------------|3-----3/4-3-------------|
|3-----3-----3-----3-5-2-|1-111-1/2-1-3-----3-5-3-|
|1-111-1-111-1-111-1-3-0-|------------1-111-1-3-1-|

C1
|----------------|---------------------|----------------|--------------/9~~~--|
|--------7-------|--4------------------|--------7-------|----4----------------|
|9---6---5---8---|3---2---2------------|9---6---5---8---|3---2---2-----/7~~~--|
|7---4-------6---|1-------0-000-0-0-0--|7---4-------6---|1-------0-000--------|

C2
|----------------|---------------------|----------------|--------------/9~~~--|
|--------7-------|--4------------------|--------7-------|----4----------------|
|9---6---5---8---|3---2---2------------|9---6---5----58-|3---2---2-----/7~~~--|
|7---4-------6---|1-------0-000-0-0-0--|7---4-------7---|1-------0-000--------|


D1   (1,3,5)           (2,4,6)            (7)             (8)
|-----------------|----------------|---------------|----7----------|
|-6---------------|----------------|6--------6-9---|6-9------------|
|---8-5p0---------|------------5-8-|-----5-8-------|-----------5-8-|
|---------7p0-0-0-|0-0-0-0-0-7-----|---------------|-------0-7-----|

D2   (1,3,5)           (2,4,6)            (7)             (8)
|-----------------|----------------|---------------|----7----------|
|-6---------------|----------------|6--------6-9---|6-9------------|
|---8-5p0---------|------------5-8-|-----5-8-------|---------------|
|---------7p0-0-0-|0-0-0-0-0-7-----|---------------|---------------|


E (3 measures of 4/4, 1 of 2/4)
|---------------|---------------|---------------|-----------------|
|---------------|---------------|---------------|-----------------|
|3-----2--(2)---|3-----6--(6)---|3-----4--(4)---|3-----2-----5-8--|
|1---x-0--(0)---|1---x-4--(4)---|1---x-2--(2)---|1---x-0---7------|


w/Riff E (leads: “Gross disorientation” by W. G. Steer)
|-----15-/19--15------------------------------------------|
|/17--------------17------17b19--15--19--17~~~~~~--(17)\--|
|---------------------16----------------------------------|
|---------------------------------------------------------|
|---------------------------------------------------------|
|---------------------------------------------------------|

|----------------------------------------------12-14-12-10-|
|/17b19r17-13-15----------------------15-12-15-------------|
|----------------16h17p16-14-16-14-12----------------------|
|----------------------------------------------------------|
|----------------------------------------------------------|
|----------------------------------------------------------|

12---------------------------------------dive w/bar---------|
---12-10-12-10-12b13r12b13r12~~~~~~~-(12)\------------------|
------------------------------------------\\----------------|
--------------------------------------------\---------------|
------------------------------------------------------------|
------------------------------------------------------------|

|------------------------------------------------------------|
|------------------------------------------------------------|
|------------------------------------------------------------|
|------------------------------------------12--1212-14121414-|
|9799-1091010-12101212-/14121414-/15141515---15--------------|
|------------------------------------------------------------|
 pm.........................................................

------------------------------------|-----------------------------------|
------------------------------------|-----------------------------------|
------------------14--1414-16141616-|16h17pp16p14-16h17-16~~~~~-(16)\---|
16141616-17161717---17--------------|-----------------------------------|
------------------------------------|-----------------------------------|
------------------------------------|-----------------------------------|
pm..................................


Repeat D


w/Riff E
|----------------------------------------|
|17~~~~~~~~-(17)b19r17b19r17-(17)~~~~~~--|
|----------------------------------------|
|----------------------------------------|
|----------------------------------------|
|----------------------------------------|

|---------------------------------------------------------------|
|t20\19p17-15-17-13-13~~~---15p13-12~~-(12)b13r12-(12)~~~-(12)\-|
|---------------------------------------------------------------|
|---------------------------------------------------------------|
|---------------------------------------------------------------|
|---------------------------------------------------------------|

|-------------------------------------------------12-14-15p14-15p14p12-|
|/15-13-12-13-12h13p12-10h12p10-------12-12-13-15----------------------|
|-------------------------------12h14----------------------------------|
|----------------------------------------------------------------------|
|----------------------------------------------------------------------|
|----------------------------------------------------------------------|

                                           Harm /\
 -----------------------|---------------------3---\--------|
 1515-14-13-12-10-12-10-|12b13r12~~~~~-(12)--------\-------|
 -----------------------|------------------\--------\------|
 -----------------------|-------------------\--------\-----|
 -----------------------|--------------------\-------------|
 -----------------------|----------(vibrato & dive w/bar)--|


|----------------------------------|14~~----/19~~~~~-(19)b20r19~~~-19-20-|
|/17~~~~~-17\12~~~-12/15~~~-/17-15-|-----15------------------------------|
|----------------------------------|-------------------------------------|
|----------------------------------|-------------------------------------|
|----------------------------------|-------------------------------------|
|----------------------------------|-------------------------------------|

|19~~~-19h20-17~~~~-17/19-17p15-17p15-14h15-|
|-------------------------------------------|
|-------------------------------------------|
|-------------------------------------------|
|-------------------------------------------|
|-------------------------------------------|

end of lead
|------------------------|
|------------------------|
|3-----2---2-2-2-2-2-2-2-|
|1---x-0---0-0-0-0-0-0-0-|
|                        |
|14~~~-14h15p14----------|
|---------------17~~~~~--|
|------------------------|
|------------------------|
|------------------------|
|------------------------|

A'
|-----------------|-----------------|-----------------|------------------|
|------------7/10-|--------10\7-----|------------7/10-|9766--------7/10--|
|2-------6/9-5/8--|---------8\5-9\6-|--------6/9-5/8--|----8755----5/8---|
|0---0-0-4/7------|0-000-0------7\4-|0-000-0-4/7------|--------7544------|

Repeat B and C
Repeat D2


The End!!!





Comments


Popular Carcass tabs & chords
Child's Play Tabs
Corporal Jisgore Quandary Tabs
Corporeal Jigsore Quandary Tabs
Death Certificate Tabs
Keep On Rotting Tabs
Mucopurulence Excretor Tabs
Pedigree Butchery Tabs
Reek Of Putrefaction Tabs
Room 1 Tabs
Tomorrow Belongs To Nobody Tabs


Song lyrics



↑ Back to top | Tablatures and chords are parodies/interpretations of the original songs. You may use it for private study, scholarship, research or language learning purposes only
© 2014 AZChords.com Contact us | Privacy policy | DMCA | Add/correct tabs | Request tabs | Top 50 tabs