» » »

Carcass, Keep On Rotting Tabs (ver.1)

Artists:  A B C D E F G H I J K L M N O P Q R S T U V W X Y Z # 

Keep On Rotting Tabs (ver.1)

Carcass Tabs
 Rating:
4/5 (4 votes)
Keep On Rotting lessons Tabs too difficult? Try these video lessons and learn fast
                Intro chords (02xxxx, etc.):  E5 G5 A5 G5 C5 D5
Verse riff:  (the E5(VII) is a grad. slide the first time, E5 first position
|-----------|-------|-----------|-----------------|  subsequent times)
|-----------|-------|-----------|-----------------|
|-----------|-------|-----------|-----------------|
|------9\---|-------|-----------|-----------------|
|------7\---|-------|------5----|-------3~~-------|
|-0000------|-------|-3333-3----|-5-3-5-----5-3-2-|
  ssss q              ssss q      e e e q   e e e
|-----------|-------|-----------|-----------------|
|-----------|-------|-----------|-----------------|
|-----------|-------|-----------|-----------------|
|-----------|-------|-----------|-----------------|
|------2----|-------|------5----|---------3-3-----|
|-0000-0----|-------|-3333-3----|-5-3-5-5-----5-3-|
  sim.                            e e ...
Pre-chorus: (2 gtrs, one doing chords & then harmony):
  E5                        G5
|-----------------|-------|-----------------|-----------------|
|-----------------|-------|-----------------|-----------------|
|-----------------|-------|-----------------|-------4~~-------|
|-------5~~-------|---%---|-------5~~-------|-5-4-5-5~~-5-4---|
|-7-5-7-----7-5---|-------|-7-5-7-----7-5---|-7-5-7-----7-5-5-|
|---------------0-|-------|---------------3-|---------------3-|
  e e e q   e e e   sim.
The second time, the ending measure ("your life of dreams")
is A5 C5 D5, into the chorus:
(everybody sing along... "keep on rotting, keep on hoping...")
|---------------------------|-------------------------|  (gtr 1)
|---------------------------|-------------------------|
|-----7------------7--------|-----7-----------7-------|
|-------9--7---------9--7---|-------9-7---------9-7---|
|-2------------2------------|-5-----------5-----------|
|-0------------0------------|-3-----------3-----------|
 "whilst in the real world you..."
|----------------------------|
|----------------------------|
|-------7---7-9-7---7--------|
|-----9---9-------9---9-7-5--|
|-7--------------------------|
|-5--------------------------|
The other guitar plays the same root chords, and a harmony in thirds
for the most part:          the ending bit of the chorus:
|----------------|  etc.   |---------------------------------------|
|----------------|         |---------------------------------------|
|-----11---------|         |--------11----11-12-11----11-----------|
|--------12--11--|         |-----12----12----------12----14-12-11--|
|-2--------------|         |-7-------------------------------------|
|-0--------------|         |-5-------------------------------------|
            
Submit corrections

comments powered by Disqus
↑ Back to top | Carcass Tabs for Keep On Rotting. Lyrics for acoustic guitar and electric guitar. Tablatures and chords are parodies/interpretations of the original songs. You may use it for private study, scholarship, research or language learning purposes only