» » »

Caramelos De Cianuro, Veronica Tabs (ver.1)

Artists:  A B C D E F G H I J K L M N O P Q R S T U V W X Y Z # 

Veronica Tabs (ver.1)

Caramelos De Cianuro Tabs
 Rating:
4.5/5 (8 votes)
Veronica lessons Tabs too difficult? Try these video lessons and learn fast
1
                [Caramelos De Cianuro] | [Veronica]

Tunnning < StandarD >

< Verse >

Llevo más de cuatro días en la casa sin  salir

E---------------------------------------------------------------------------|
B---------------------------------------------------------------------------|
G-----------------------------------------------7-----7-----7-----7-----7---|
D----------5-----5-----5-----5-----5-----5--7-7-7-7-7-7-7-7-7-7-7-7-7-7-7-7-|
A------5-5-5-5-5-5-5-5-5-5-5-5-5-5-5-5-5-5--5-5-5-5-5-5-5-5-5-5-5-5-5-5-5-5-|
E------3-3-3-3-3-3-3-3-3-3-3-3-3-3-3-3-3-3----------------------------------|
                      .............[PM]..............
De fumar y dormir

E--------------------------------------------------------------------------|
B--------------------------------------------------------------------------|
G-----------------9-----9-----9-----9-----9-----9--------------------------|
D-------------9-9-9-9-9-9-9-9-9-9-9-9-9-9-9-9-9-9--------------------------|
A-------------7-7-7-7-7-7-7-7-7-7-7-7-7-7-7-7-7-7--------------------------|
E--------------------------------------------------------------------------|
                      ..............[PM]..............

Empiezo a sentirme    encerrado

E--------------------------------------------------------------------------|
B--------------------------------------------------------------------------|
G----------------5-----5------7-----7--------------------------------------|
D------------5-5-5-5-5-5--7-7-7-7-7-7--------------------------------------|
A------------3-3-3-3-3-3--5-5-5-5-5-5--------------------------------------|
E--------------------------------------------------------------------------|
                      ..............[PM]..............

El Resto del Verso se toca IguaL. | The rest of the verse is played With
                                           The Same Chords

Quizás si pueda despegarme del televisor
meterme en el ascensor
me sienta un poco mejor

Bien sabes que soy del tipo callado
ya te lo he demostrado
así es que comienza tu interrogación
Yo sé que tienes derecho
a mucho más que sexo
por eso te pido perdón

< Pre - ChoruS >

  Siempre estoy diciendo todo tiene su momento

E--------------------------------------------------------------------------|
B--------------------------------------------------------------------------|
G--------------------------------------------------------------------------|
D---7--------------------------5-------------------------------------------|
A---7--------------------------5-------------------------------------------|
E---5--------------------------3-------------------------------------------|

  Bien podemos Esperar un día Más

E----------------------------------------------------------------------------|
B----------------------------------------------------------------------------|
G---------7---------5--------------------------------------------------------|
D---------7---------3-----------2--------------------------------------------|
A---------5---------3-----------2--------------------------------------------|
E-------------------------------0--------------------------------------------|

  Viendo hacia el pasado has esperado demasiado

E--------------------------------------------------------------------------|
B--------------------------------------------------------------------------|
G--------------------------------------------------------------------------|
D---7----------------------------5-----------------------------------------|
A---7----------------------------5-----------------------------------------|
E---5----------------------------3-----------------------------------------|

y me sorprendo al darme cuenta que aún estás

E--------------------------------------------------------------------------|
B--------------------------------------------------------------------------|
G---------7---------------5------------------------------------------------|
D---------7---------------3---------------2--------------------------------|
A---------5---------------3---------------2--------------------------------|
E-----------------------------------------0--------------------------------|

< ChoruS >

Despiértame Verónica al romper el día

E--------------------------------------------------------------------------|
B--------------------------------------------------------------------------|
G---------------------------7----------------------------------------------|
D----5----------------------7----------------------------------------------|
A----5----------------------5----------------------------------------------|
E----3---------------------------------------------------------------------|

Y hazme sentir la alegría de volverte a amar

E--------------------------------------------------------------------------|
B--------------------------------------------------------------------------|
G-------------------------------7------------------------------------------|
D---------2---------------------7------------------------------------------|
A---------2---------------------5------------------------------------------|
E---------0----------------------------------------------------------------|

Dormido entre las sabanas hallé tu aroma

E--------------------------------------------------------------------------|
B--------------------------------------------------------------------------|
G---5----------------------------------------------------------------------|
D---5-------------------------5--------------------------------------------|
A---3-------------------------5--------------------------------------------|
E-----------------------------3--------------------------------------------|

Tu presencia que se asoma un momento nada más

E---------------------------------------------------------------------------|
B---------------------------------------------------------------------------|
G-------------------------------7-------------------------------------------|
D-------2-----------------------7-------------------------------------------|
A-------2-----------------------5-------------------------------------------|
E-------0-------------------------------------------------------------------|

Yo sé que las canciones se las lleva el viento

E--------------------------------------------------------------------------|
B--------------------------------------------------------------------------|
G------------------------------7-------------------------------------------|
D----5-------------------------7-------------------------------------------|
A----5-------------------------5-------------------------------------------|
E----3---------------------------------------------------------------------|

Es lo único que tengo, ¿Qué más puedo dar?

E--------------------------------------------------------------------------|
B--------------------------------------------------------------------------|
G--------------------------------7-----------------------------------------|
D-------2------------------------7-----------------------------------------|
A-------2------------------------5-----------------------------------------|
E-------0------------------------------------------------------------------|

Acuérdate Verónica después de todo

E--------------------------------------------------------------------------|
B--------------------------------------------------------------------------|
G---5----------------------------------------------------------------------|
D---5-------------------5--------------------------------------------------|
A---3-------------------5--------------------------------------------------|
E-----------------------3--------------------------------------------------|

Debe existir algún modo en que yo te pueda pagar

E--------------------------------------------------------------------------|
B--------------------------------------------------------------------------|
G---------------------------------7----------------------------------------|
D-------2-------------------------7----------------------------------------|
A-------2-------------------------5----------------------------------------|
E-------0------------------------------------------------------------------|

< Interlude > [x2]

E---------------------------------------------------------------------------|
B---------------------------------------------------------------------------|
G-----------------------------------------------7-----7-----7-----7-----7---|
D----------5-----5-----5-----5-----5-----5--7-7-7-7-7-7-7-7-7-7-7-7-7-7-7-7-|
A------5-5-5-5-5-5-5-5-5-5-5-5-5-5-5-5-5-5--5-5-5-5-5-5-5-5-5-5-5-5-5-5-5-5-|
E------3-3-3-3-3-3-3-3-3-3-3-3-3-3-3-3-3-3----------------------------------|
                      .............[PM]..............

E--------------------------------------------------------------------------|
B--------------------------------------------------------------------------|
G-----------9-----9-----9-----9-----9-----9------5-----5------7-----7------|
D-------9-9-9-9-9-9-9-9-9-9-9-9-9-9-9-9-9-9--5-5-5-5-5-5--7-7-7-7-7-7------|
A-------7-7-7-7-7-7-7-7-7-7-7-7-7-7-7-7-7-7--3-3-3-3-3-3--5-5-5-5-5-5------|
E--------------------------------------------------------------------------|
                      .............[PM]..............


< Pre - ChoruS >

< ChoruS > [x2]

La Canción termina Con un G    | Song's ending is a G


Spero que sea de su agrado xD ... Desde Mcbo/Vzla.
            
Submit corrections

comments powered by Disqus
↑ Back to top | Caramelos De Cianuro Tabs for Veronica. Lyrics for acoustic guitar and electric guitar. 1 Tablatures and chords are parodies/interpretations of the original songs. You may use it for private study, scholarship, research or language learning purposes only