>
 >
Delineador Principio

Delineador Principio Guitar Tabs

Caramelos De Cianuro - Delineador Principio chords, tabs, tablatures, lyrics

Guitar lessons | Add/correct | Request | Top 50 tabs Artists:  A B C D E F G H I J K L M N O P Q R S T U V W X Y Z 0-9

Delineador Principio Guitar Tabs – Caramelos De Cianuro

CD, Sheet music, Poster

Do you like Delineador Principio? Share with your friends now
Tabs
    DELINEADOR                                    

                              CARAMELOS DE CIANURO

                         Creada Por: Jhoan G. Valera O. 
                                   VENEZUELA


Pre

     Q    Q    Q    Q       Q    Q    Q    Q       Q    Q    Q    Q     
E||----------------------|----------------------|----------------------|
B||----------------------|----------------------|----------------------|
G||----------------------|----------------------|----------------------|
D||--5----5----5----5----|--5----5----5----5----|--5----5----5----5----|
A||--5----5----5----5----|--5----5----5----5----|--5----5----5----5----|
E||--3----3----3----3----|--3----3----3----3----|--3----3----3----3----|


  Q    Q    Q    Q       Q    Q    Q    Q       Q    Q    Q    Q     
----------------------|----------------------|----------------------|
----------------------|----------------------|----------------------|
----------------------|----------------------|----------------------|
--5----5----5----5----|--5----5----5----5----|--5----5----5----5----|
--5----5----5----5----|--5----5----5----5----|--5----5----5----5----|
--3----3----3----3----|--3----3----3----3----|--3----3----3----3----|


  Q    Q    Q    Q       Q     Q    Q    Q       Q    Q    Q    Q     
----------------------|-----------------------|----------------------|
----------------------|-----------------------|----------------------|
----------------------|-----------------------|----------------------|
--5----5----5----5----|--5--------------------|--2----2----2----2----|
--5----5----5----5----|--5----\3----2----0----|--2----2----2----2----|
--3----3----3----3----|--3--------------------|--0----0----0----0----|


  Q    Q    Q    Q       Q    Q    Q    Q       Q     Q    Q    Q     
----------------------|----------------------|-----------------------|
----------------------|----------------------|-----------------------|
----------------------|----------------------|-----------------------|
--2----2----2----2----|--2----2----2----2----|--2--------------------|
--2----2----2----2----|--2----2----2----2----|--2----\3----2----0----|
--0----0----0----0----|--0----0----0----0----|--0--------------------|


  Q    Q    Q    Q       Q    Q    Q    Q       Q    Q    Q    Q     
----------------------|----------------------|----------------------|
----------------------|----------------------|----------------------|
----------------------|----------------------|----------------------|
--5----5----5----5----|--5----5----5----5----|--5----5----5----5----|
--5----5----5----5----|--5----5----5----5----|--5----5----5----5----|
--3----3----3----3----|--3----3----3----3----|--3----3----3----3----|


  Q     Q    Q    Q       Q    Q    Q    Q       Q     Q    Q    Q     
-----------------------|----------------------|-----------------------|
-----------------------|----------------------|-----------------------|
-----------------------|----------------------|-----------------------|
--5--------------------|--2----2----2----2----|--2--------------------|
--5----\3----2----0----|--2----2----2----2----|--2----\5----3----2----|
--3--------------------|--0----0----0----0----|--0--------------------|


  Q    Q    Q    Q       Q    Q    Q    Q       Q    Q    Q    Q     
----------------------|----------------------|----------------------|
----------------------|----------------------|----------------------|
--2----2----2----2----|--2----2----2----2----|--2-------------------|
--2----2----2----2----|--2----2----2----2----|--2-------------------|
--0----0----0----0----|--0----0----0----0----|--0--------------0----|
----------------------|----------------------|-------2----3---------|


  Q    Q    Q    Q       Q    Q    Q    Q       Q    Q    Q    Q     
----------------------|----------------------|----------------------|
----------------------|----------------------|----------------------|
----------------------|--5----5----5----5----|--5----5----5----5----|
----------------------|--5----5----5----5----|--5----5----5----5----|
--3----2----0---------|--3----3----3----3----|--3----3----3----3----|
-----------------0----|----------------------|----------------------|


                              ^    ^                                 
  Q    Q    Q    Q       Q    Q    Q    Q       Q    Q    Q    Q     
----------------------|----------------------|----------------------|
----------------------|----------------------|----------------------|
--5----5----5----5----|--5----5----5----5----|----------------------|
--5----5----5----5----|--5----5----5----5----|--5----5----5----5----|
--3----3----3----3----|--3----3----3----3----|--5----5----5----5----|
----------------------|----------------------|--3----3----3----3----|


  Q    Q    Q    Q       Q    Q    Q    Q       Q     Q    Q    Q     
----------------------|----------------------|-----------------------|
----------------------|----------------------|-----------------------|
----------------------|----------------------|-----------------------|
--5----5----5----5----|--5----5----5----5----|--5--------------------|
--5----5----5----5----|--5----5----5----5----|--5----\3----2----0----|
--3----3----3----3----|--3----3----3----3----|--3--------------------|


  Q    Q    Q    Q       Q    Q    Q    Q       Q    Q    Q    Q     
----------------------|----------------------|----------------------|
----------------------|----------------------|----------------------|
----------------------|----------------------|----------------------|
--2----2----2----2----|--2----2----2----2----|--2----2----2----2----|
--2----2----2----2----|--2----2----2----2----|--2----2----2----2----|
--0----0----0----0----|--0----0----0----0----|--0----0----0----0----|


  Q     Q    Q    Q       Q    Q    Q    Q       Q    Q    Q    Q     
-----------------------|----------------------|----------------------|
-----------------------|----------------------|----------------------|
-----------------------|----------------------|----------------------|
--2--------------------|--5----5----5----5----|--5----5----5----5----|
--2----\3----2----0----|--5----5----5----5----|--5----5----5----5----|
--0--------------------|--3----3----3----3----|--3----3----3----3----|


  Q    Q    Q    Q       Q     Q    Q    Q       Q    Q    Q    Q     
----------------------|-----------------------|----------------------|
----------------------|-----------------------|----------------------|
----------------------|-----------------------|----------------------|
--5----5----5----5----|--5--------------------|--2----2----2----2----|
--5----5----5----5----|--5----\3----2----0----|--2----2----2----2----|
--3----3----3----3----|--3--------------------|--0----0----0----0----|


  Q     Q    Q    Q       Q    Q    Q    Q       Q    Q    Q    Q     
-----------------------|----------------------|----------------------|
-----------------------|----------------------|----------------------|
-----------------------|--2----2----2----2----|--2----2----2----2----|
--2--------------------|--2----2----2----2----|--2----2----2----2----|
--2----\5----3----2----|--0----0----0----0----|--0----0----0----0----|
--0--------------------|----------------------|----------------------|


  Q    Q    Q    Q       Q    Q    Q    Q       Q    Q    Q    Q     
----------------------|----------------------|----------------------|
----------------------|----------------------|----------------------|
--2-------------------|----------------------|--5----5----5----5----|
--2-------------------|----------------------|--5----5----5----5----|
--0--------------0----|--3----2----0---------|--3----3----3----3----|
-------2----3---------|-----------------3----|----------------------|


                                                     ^    ^          
  Q    Q    Q    Q       Q    Q    Q    Q       Q    Q    Q    Q     
----------------------|----------------------|----------------------|
----------------------|----------------------|----------------------|
--5----5----5----5----|--5----5----5----5----|--5----5----5---------|
--5----5----5----5----|--5----5----5----5----|--5----5----5---------|
--3----3----3----3----|--3----3----3----3----|--3----3----3---------|
----------------------|----------------------|----------------------|

Coro

Esta Parte la tocan gitarra 1 y 2.

Guitarra 1
  Q    Q    Q    Q       Q    Q    Q    Q       Q    Q    Q    Q     
----------------------|----------------------|----------------------|
----------------------|----------------------|----------------------|
----------------------|----------------------|----------------------|
--2---------2----2----|-------2----2----2----|--5---------5----5----|
--2---------2----2----|-------2----2----2----|--5---------5----5----|
--0---------0----0----|-------0----0----0----|--3---------3----3----|

Guitarra 2

--0---------7----7----|-------0----7---------|--0---------7----7----|
--5---------5----5----|-------5----5---------|--8---------8----8----|
----------------------|----------------------|----------------------|
----------------------|----------------------|----------------------|
----------------------|----------------------|----------------------|
----------------------|----------------------|----------------------|


Guitarra 1
  Q    Q    Q    Q       Q    Q    Q    Q       Q    Q    Q    Q     
----------------------|----------------------|----------------------|
----------------------|----------------------|----------------------|
----------------------|----------------------|----------------------|
-------5----5----5----|--9---------9----9----|-------9----9----9----|
-------5----5----5----|--9---------9----9----|-------9----9----9----|
-------3----3----3----|--7---------7----7----|-------7----7----7----|

Guitarra 2

-------0----7---------|--0---------7----7----|-------0----7---------|
-------8----8---------|--7---------7----7----|-------7----7---------|
----------------------|----------------------|----------------------|
----------------------|----------------------|----------------------|
----------------------|----------------------|----------------------|
----------------------|----------------------|----------------------|

Guitarra 1

   Q    Q     Q     Q       Q     Q     Q     Q       Q    Q    Q    Q     
-------------------------|-------------------------|----------------------|
-------------------------|-------------------------|----------------------|
-------------------------|-------------------------|----------------------|
--12---------12----12----|-------12----12----12----|--7---------7----7----|
--12---------12----12----|-------12----12----12----|--7---------7----7----|
--10---------10----10----|-------10----10----10----|--5---------5----5----|

Guitarra 2

--0---------5----5----|--7---------5---------|--0---------8----8----|
--5---------5----5----|--5---------5---------|--8---------8----8----|
----------------------|----------------------|----------------------|
----------------------|----------------------|----------------------|
----------------------|----------------------|----------------------|
----------------------|----------------------|----------------------|

Guitarra 1
  Q    Q    Q    Q       Q    Q    Q    Q       Q    Q    Q    Q     
----------------------|----------------------|----------------------|
----------------------|----------------------|----------------------|
----------------------|----------------------|----------------------|
-------7----7----7----|--2---------2----2----|-------2----2----2----|
-------7----7----7----|--2---------2----2----|-------2----2----2----|
-------5----5----5----|--0---------0----0----|-------0----0----0----|

Guitarra 2

--8----8----7---------|--0---------8----8----|--8----8----7----8----|
--8----8----8---------|--8---------8----8----|--8----8----8----8----|
----------------------|----------------------|----------------------|
----------------------|----------------------|----------------------|
----------------------|----------------------|----------------------|
----------------------|----------------------|----------------------|

Guitarra 1
  Q    Q    Q    Q       Q    Q    Q    Q       Q    Q    Q    Q     
----------------------|----------------------|----------------------|
----------------------|----------------------|----------------------|
----------------------|----------------------|----------------------|
--5---------5----5----|-------5----5----5----|--4---------4----4----|
--5---------5----5----|-------5----5----5----|--4---------4----4----|
--3---------3----3----|-------3----3----3----|--2---------2----2----|

Guitarra 2

--7----L----7----7----|--7----7----7---------|--5----L----5----5----|
--8----L----8----8----|--8----8----8---------|--7----L----7----7----|
----------------------|----------------------|----------------------|
----------------------|----------------------|----------------------|
----------------------|----------------------|----------------------|
----------------------|----------------------|----------------------|

Guitarra 1

  Q    Q    Q    Q       Q    Q    Q    Q       Q    Q    Q    Q     
----------------------|----------------------|----------------------|
----------------------|----------------------|----------------------|
----------------------|----------------------|----------------------|
-------4----4----4----|--2---------2----2----|-------2----2----2----|
-------4----4----4----|--2---------2----2----|-------2----2----2----|
-------2----2----2----|--0---------0----0----|-------0----0----0----|

Guitarra 2

--5----5----5----5----|--0---------7----7----|-------0----7---------|
--7----7----7----7----|--5---------5----5----|-------5----5---------|
----------------------|----------------------|----------------------|
----------------------|----------------------|----------------------|
----------------------|----------------------|----------------------|
----------------------|----------------------|----------------------|

Guitarra 1
  Q    Q    Q    Q       Q    Q    Q    Q       Q    Q    Q    Q     
----------------------|----------------------|----------------------|
----------------------|----------------------|----------------------|
----------------------|----------------------|----------------------|
--5---------5----5----|-------5----5----5----|--9---------9----9----|
--5---------5----5----|-------5----5----5----|--9---------9----9----|
--3---------3----3----|-------3----3----3----|--7---------7----7----|

Gitarra 2

--0---------7----7----|-------0----7---------|--0---------7----7----|
--8---------8----8----|-------8----8---------|--7---------7----7----|
----------------------|----------------------|----------------------|
----------------------|----------------------|----------------------|
----------------------|----------------------|----------------------|
----------------------|----------------------|----------------------|

Guitarra 1

  Q    Q    Q    Q        Q    Q     Q     Q       Q     Q     Q     Q     
----------------------|-------------------------|-------------------------|
----------------------|-------------------------|-------------------------|
----------------------|-------------------------|-------------------------|
-------9----9----9----|--12---------12----12----|-------12----12----12----|
-------9----9----9----|--12---------12----12----|-------12----12----12----|
-------7----7----7----|--10---------10----10----|-------10----10----10----|

Guitarra 2

-------0----7---------|--0---------5----5----|--7---------5---------|
-------7----7---------|--5---------5----5----|--5---------5---------|
----------------------|----------------------|----------------------|
----------------------|----------------------|----------------------|
----------------------|----------------------|----------------------|
----------------------|----------------------|----------------------|

Guitarra 1

  Q    Q    Q    Q       Q    Q    Q    Q       Q    Q    Q    Q     
----------------------|----------------------|----------------------|
----------------------|----------------------|----------------------|
----------------------|----------------------|----------------------|
--7---------7----7----|-------7----7----7----|--2---------2----2----|
--7---------7----7----|-------7----7----7----|--2---------2----2----|
--5---------5----5----|-------5----5----5----|--0---------0----0----|

Guitarra 2

--0---------8----8----|--8----8----7---------|--0---------8----8----|
--8---------8----8----|--8----8----8---------|--8---------8----8----|
----------------------|----------------------|----------------------|
----------------------|----------------------|----------------------|
----------------------|----------------------|----------------------|

Guitarra 1

  Q    Q    Q    Q       Q    Q    Q    Q       Q    Q    Q    Q     
----------------------|----------------------|----------------------|
----------------------|----------------------|----------------------|
----------------------|----------------------|----------------------|
-------2----2----2----|--5---------5----5----|-------5----5----5----|
-------2----2----2----|--5---------5----5----|-------5----5----5----|
-------0----0----0----|--3---------3----3----|-------3----3----3----|

Guitarra 2

--8----8----7----8----|--7----L----7----7----|--7----7----7---------|
--8----8----8----8----|--8----L----8----8----|--8----8----8---------|
----------------------|----------------------|----------------------|
----------------------|----------------------|----------------------|
----------------------|----------------------|----------------------|
----------------------|----------------------|----------------------|

Guitarra 1

  Q    Q    Q    Q       Q    Q    Q    Q       Q    Q    Q    Q     
----------------------|----------------------|----------------------|
----------------------|----------------------|----------------------|
----------------------|----------------------|----------------------|
--4---------4----4----|-------4----4----4----|--5----5----5----5----|
--4---------4----4----|-------4----4----4----|--5----5----5----5----|
--2---------2----2----|-------2----2----2----|--3----3----3----3----|

Guitarra 2

--5----L----5----5----|--5----5----5----5----|--3-------------------|
--7----L----7----7----|--7----7----7----7----|----------------------|
----------------------|----------------------|----------------------|
----------------------|----------------------|----------------------|
----------------------|----------------------|----------------------|
----------------------|----------------------|----------------------|


Pre

  Q    Q    Q    Q       Q    Q    Q    Q       Q     Q    Q    Q     
----------------------|----------------------|-----------------------|
----------------------|----------------------|-----------------------|
----------------------|----------------------|-----------------------|
--5----5----5----5----|--5----5----5----5----|--5--------------------|
--5----5----5----5----|--5----5----5----5----|--5----\3----2----0----|
--3----3----3----3----|--3----3----3----3----|--3--------------------|


  Q    Q    Q    Q       Q    Q    Q    Q       Q    Q    Q    Q     
----------------------|----------------------|----------------------|
----------------------|----------------------|----------------------|
----------------------|----------------------|----------------------|
--2----2----2----2----|--2----2----2----2----|--2----2----2----2----|
--2----2----2----2----|--2----2----2----2----|--2----2----2----2----|
--0----0----0----0----|--0----0----0----0----|--0----0----0----0----|


  Q     Q    Q    Q       Q    Q    Q    Q       Q    Q    Q    Q     
-----------------------|----------------------|----------------------|
-----------------------|----------------------|----------------------|
-----------------------|----------------------|----------------------|
--2--------------------|--5----5----5----5----|--5----5----5----5----|
--2----\3----2----0----|--5----5----5----5----|--5----5----5----5----|
--0--------------------|--3----3----3----3----|--3----3----3----3----|


  Q    Q    Q    Q       Q     Q    Q    Q       Q    Q    Q    Q     
----------------------|-----------------------|----------------------|
----------------------|-----------------------|----------------------|
----------------------|-----------------------|----------------------|
--5----5----5----5----|--5--------------------|--2----2----2----2----|
--5----5----5----5----|--5----\3----2----0----|--2----2----2----2----|
--3----3----3----3----|--3--------------------|--0----0----0----0----|


  Q     Q    Q    Q       Q    Q    Q    Q       Q    Q    Q    Q     
-----------------------|----------------------|----------------------|
-----------------------|----------------------|----------------------|
-----------------------|--2----2----2----2----|--2----2----2----2----|
--2--------------------|--2----2----2----2----|--2----2----2----2----|
--2----\5----3----2----|--0----0----0----0----|--0----0----0----0----|
--0--------------------|----------------------|----------------------|


  Q    Q    Q    Q       Q    Q    Q    Q       Q    Q    Q    Q     
----------------------|----------------------|----------------------|
----------------------|----------------------|----------------------|
--2-------------------|----------------------|--5----5----5----5----|
--2-------------------|----------------------|--5----5----5----5----|
--0--------------0----|--3----2----0---------|--3----3----3----3----|
-------2----3---------|-----------------3----|----------------------|


                                                     ^    ^          
  Q    Q    Q    Q       Q    Q    Q    Q       Q    Q    Q    Q     
----------------------|----------------------|----------------------|
----------------------|----------------------|----------------------|
--5----5----5----5----|--5----5----5----5----|--5----5----5---------|
--5----5----5----5----|--5----5----5----5----|--5----5----5---------|
--3----3----3----3----|--3----3----3----3----|--3----3----3---------|
----------------------|----------------------|----------------------|


  Q    Q    Q    Q       Q    Q    Q    Q       Q    Q    Q    Q     
----------------------|----------------------|----------------------|
----------------------|----------------------|----------------------|
----------------------|----------------------|----------------------|
--5----5----5----5----|--5----5----5----5----|--5----5----5----5----|
--5----5----5----5----|--5----5----5----5----|--5----5----5----5----|
--3----3----3----3----|--3----3----3----3----|--3----3----3----3----|


  Q     Q    Q    Q       Q    Q    Q    Q       Q    Q    Q    Q     
-----------------------|----------------------|----------------------|
-----------------------|----------------------|----------------------|
-----------------------|----------------------|----------------------|
--5--------------------|--2----2----2----2----|--2----2----2----2----|
--5----\3----2----0----|--2----2----2----2----|--2----2----2----2----|
--3--------------------|--0----0----0----0----|--0----0----0----0----|


  Q    Q    Q    Q       Q     Q    Q    Q       Q    Q    Q    Q     
----------------------|-----------------------|----------------------|
----------------------|-----------------------|----------------------|
----------------------|-----------------------|----------------------|
--2----2----2----2----|--2--------------------|--5----5----5----5----|
--2----2----2----2----|--2----\3----2----0----|--5----5----5----5----|
--0----0----0----0----|--0--------------------|--3----3----3----3----|


  Q    Q    Q    Q       Q    Q    Q    Q       Q     Q    Q    Q     
----------------------|----------------------|-----------------------|
----------------------|----------------------|-----------------------|
----------------------|----------------------|-----------------------|
--5----5----5----5----|--5----5----5----5----|--5--------------------|
--5----5----5----5----|--5----5----5----5----|--5----\3----2----0----|
--3----3----3----3----|--3----3----3----3----|--3--------------------|


  Q    Q    Q    Q       Q     Q    Q    Q       Q    Q    Q    Q     
----------------------|-----------------------|----------------------|
----------------------|-----------------------|----------------------|
----------------------|-----------------------|--2----2----2----2----|
--2----2----2----2----|--2--------------------|--2----2----2----2----|
--2----2----2----2----|--2----\5----3----2----|--0----0----0----0----|
--0----0----0----0----|--0--------------------|----------------------|


  Q    Q    Q    Q       Q    Q    Q    Q       Q    Q    Q    Q     
----------------------|----------------------|----------------------|
----------------------|----------------------|----------------------|
--2----2----2----2----|--2-------------------|----------------------|
--2----2----2----2----|--2-------------------|----------------------|
--0----0----0----0----|--0--------------0----|--3----2----0---------|
----------------------|-------2----3---------|-----------------3----|


  Q    Q    Q    Q       Q    Q    Q    Q       Q    Q    Q    Q     
----------------------|----------------------|----------------------|
----------------------|----------------------|----------------------|
--5----5----5----5----|--5----5----5----5----|--5----5----5----5----|
--5----5----5----5----|--5----5----5----5----|--5----5----5----5----|
--3----3----3----3----|--3----3----3----3----|--3----3----3----3----|
----------------------|----------------------|----------------------|

Apartir del coro comienza la guitarra 2 también...

       ^         ^                                                   
  Q    Q    Coro    Q       Q    Q    Q    Q       Q    Q    Q    Q     
----------------------|----------------------|----------------------|
----------------------|----------------------|----------------------|
--5----5--------------|----------------------|----------------------|
--5----5---------2----|-------2----2---------|--2----2----2----5----|
--3----3---------2----|-------2----2---------|--2----2----2----5----|
-----------------0----|-------0----0---------|--0----0----0----3----|


  Q    Q    Q    Q       Q    Q    Q    Q       Q    Q    Q    Q     
----------------------|----------------------|----------------------|
----------------------|----------------------|----------------------|
----------------------|----------------------|----------------------|
-------5----5---------|--5----5----5----9----|-------9----9---------|
-------5----5---------|--5----5----5----9----|-------9----9---------|
-------3----3---------|--3----3----3----7----|-------7----7---------|


  Q    Q    Q     Q       Q     Q     Q    Q        Q     Q     Q    Q     
-----------------------|------------------------|-------------------------|
-----------------------|------------------------|-------------------------|
-----------------------|------------------------|-------------------------|
--9----9----9----12----|-------12----12---------|--12----12----12----7----|
--9----9----9----12----|-------12----12---------|--12----12----12----7----|
--7----7----7----10----|-------10----10---------|--10----10----10----5----|


  Q    Q    Q    Q       Q    Q    Q    Q       Q    Q    Q    Q     
----------------------|----------------------|----------------------|
----------------------|----------------------|----------------------|
----------------------|----------------------|----------------------|
-------7----7---------|--7----7----7----2----|-------2----2---------|
-------7----7---------|--7----7----7----2----|-------2----2---------|
-------5----5---------|--5----5----5----0----|-------0----0---------|


  Q    Q    Q    Q       Q    Q    Q    Q       Q    Q    Q    Q     
----------------------|----------------------|----------------------|
----------------------|----------------------|----------------------|
----------------------|----------------------|----------------------|
--2----2----2----5----|-------5----5---------|--5----5----5----4----|
--2----2----2----5----|-------5----5---------|--5----5----5----4----|
--0----0----0----3----|-------3----3---------|--3----3----3----2----|


  Q    Q    Q    Q       Q    Q    Q    Q       Q    Q    Q    Q     
----------------------|----------------------|----------------------|
----------------------|----------------------|----------------------|
----------------------|----------------------|----------------------|
-------4----4---------|--4----4----4----2----|-------2----2---------|
-------4----4---------|--4----4----4----2----|-------2----2---------|
-------2----2---------|--2----2----2----0----|-------0----0---------|


  Q    Q    Q    Q       Q    Q    Q    Q       Q    Q    Q    Q     
----------------------|----------------------|----------------------|
----------------------|----------------------|----------------------|
----------------------|----------------------|----------------------|
--2----2----2----5----|-------5----5---------|--5----5----5----9----|
--2----2----2----5----|-------5----5---------|--5----5----5----9----|
--0----0----0----3----|-------3----3---------|--3----3----3----7----|


  Q    Q    Q    Q       Q    Q    Q     Q       Q     Q     Q    Q     
----------------------|-----------------------|------------------------|
----------------------|-----------------------|------------------------|
----------------------|-----------------------|------------------------|
-------9----9---------|--9----9----9----12----|-------12----12---------|
-------9----9---------|--9----9----9----12----|-------12----12---------|
-------7----7---------|--7----7----7----10----|-------10----10---------|


   Q     Q     Q    Q       Q    Q    Q    Q       Q    Q    Q    Q     
-------------------------|----------------------|----------------------|
-------------------------|----------------------|----------------------|
-------------------------|----------------------|----------------------|
--12----12----12----7----|-------7----7---------|--7----7----7----2----|
--12----12----12----7----|-------7----7---------|--7----7----7----2----|
--10----10----10----5----|-------5----5---------|--5----5----5----0----|


  Q    Q    Q    Q       Q    Q    Q    Q       Q    Q    Q    Q     
----------------------|----------------------|----------------------|
----------------------|----------------------|----------------------|
----------------------|----------------------|----------------------|
-------2----2---------|--2----2----2----5----|-------5----5----5----|
-------2----2---------|--2----2----2----5----|-------5----5----5----|
-------0----0---------|--0----0----0----3----|-------3----3----3----|


  Q    Q    Q    Q       Q    Q    Q    Q       Q    Q    Q    Q     
----------------------|----------------------|----------------------|
----------------------|----------------------|----------------------|
----------------------|----------------------|-----------------5----|
--5----5----5----4----|--4----4----4----4----|--4----4---------5----|
--5----5----5----4----|--4----4----4----4----|--4----4---------3----|
--3----3----3----2----|--2----2----2----2----|--2----2--------------|


  Q    Q    Q    Q       Q    Q    Q    Q       Q    Q    Q    Q     
----------------------|----------------------|----------------------|
----------------------|----------------------|----------------------|
--5----5----5----5----|--5----5----5----5----|--5----5----5----5----|
--5----5----5----5----|--5----5----5----5----|--5----5----5----5----|
--3----3----3----3----|--3----3----3----3----|--3----3----3----3----|
----------------------|----------------------|----------------------|


  Q    Q    Q    Q       Q    Q    Q    Q       Q    Q    Q    Q     
----------------------|----------------------|----------------------|
----------------------|----------------------|----------------------|
--5----5----5----6----|--6----6----6----6----|--6----6----6----6----|
--5----5----5----6----|--6----6----6----6----|--6----6----6----6----|
--3----3----3----4----|--4----4----4----4----|--4----4----4----4----|
----------------------|----------------------|----------------------|


  Q    Q    Q    Q       Q    Q    Q    Q       Q    Q    Q    Q     
----------------------|----------------------|----------------------|
----------------------|----------------------|----------------------|
--6----6----6----6----|--6----6----6----5----|--5----5----5----5----|
--6----6----6----6----|--6----6----6----5----|--5----5----5----5----|
--4----4----4----4----|--4----4----4----3----|--3----3----3----3----|
----------------------|----------------------|----------------------|


  Q    Q    Q    Q       Q    Q    Q    Q       Q    Q    Q    Q     
----------------------|----------------------|----------------------|
----------------------|----------------------|----------------------|
--5----5----5----7----|--7----7----7----7----|--7----7----7---------|
--5----5----5----7----|--7----7----7----7----|--7----7----7---------|
--3----3----3----5----|--5----5----5----5----|--5----5----5---------|
----------------------|----------------------|----------------------|

En esta parte a los 2:40 al 2:55 minutos se toca lo mismo del coro solo 
que la guitarra 1 se cambia por una acustica.

  Q    Q    Q    Q       Q    Q    Q    Q       Q    Q    Q    Q     
----------------------|----------------------|----------------------|
----------------------|----------------------|----------------------|
----------------------|----------------------|----------------------|
----------------------|----------------------|----------------------|
----------------------|----------------------|----------------------|
----------------------|----------------------|----------------------|


2:55 en adelante sigue esto : Guitarra 1 y guitarra 2 hasta el final...
  Q    Q    Q    Q       Q    Q    Q    Q       Q    Q    Q    Q     
----------------------|----------------------|----------------------|
----------------------|----------------------|----------------------|
----------------------|----------------------|----------------------|
-----------------2----|--L----2----2----L----|--2----2----2----5----|
-----------------2----|--L----2----2----L----|--2----2----2----5----|
-----------------0----|--L----0----0----L----|--0----0----0----3----|


  Q    Q    Q    Q       Q    Q    Q    Q       Q    Q    Q    Q     
----------------------|----------------------|----------------------|
----------------------|----------------------|----------------------|
----------------------|----------------------|----------------------|
--L----5----5----L----|--5----5----5----9----|--L----9----9----L----|
--L----5----5----L----|--5----5----5----9----|--L----9----9----L----|
--L----3----3----L----|--3----3----3----7----|--L----7----7----L----|


  Q    Q    Q     Q       Q     Q     Q    Q        Q     Q     Q    Q     
-----------------------|------------------------|-------------------------|
-----------------------|------------------------|-------------------------|
-----------------------|------------------------|-------------------------|
--9----9----9----12----|--L----12----12----L----|--12----12----12----7----|
--9----9----9----12----|--L----12----12----L----|--12----12----12----7----|
--7----7----7----10----|--L----10----10----L----|--10----10----10----5----|


  Q    Q    Q    Q       Q    Q    Q     Q       Q     Q     Q    Q     
----------------------|-----------------------|------------------------|
----------------------|-----------------------|------------------------|
----------------------|-----------------------|------------------------|
--L----7----7----L----|--7----7----7----10----|--L----10----10----L----|
--L----7----7----L----|--7----7----7----10----|--L----10----10----L----|
--L----5----5----L----|--5----5----5-----8----|--L-----8-----8----L----|


   Q     Q     Q    Q       Q    Q    Q    Q       Q    Q    Q    Q     
-------------------------|----------------------|----------------------|
-------------------------|----------------------|----------------------|
-------------------------|----------------------|----------------------|
--10----10----10----5----|--L----5----5----L----|--5----5----5----4----|
--10----10----10----5----|--L----5----5----L----|--5----5----5----4----|
---8-----8-----8----3----|--L----3----3----L----|--3----3----3----2----|


  Q    Q    Q    Q       Q    Q    Q    Q       Q    Q    Q    Q     
----------------------|----------------------|----------------------|
----------------------|----------------------|----------------------|
----------------------|----------------------|----------------------|
-------4----4---------|--4----4----4----2----|--L----2----2----L----|
-------4----4---------|--4----4----4----2----|--L----2----2----L----|
-------2----2---------|--2----2----2----0----|--L----0----0----L----|


  Q    Q    Q    Q       Q    Q    Q    Q       Q    Q    Q    Q     
----------------------|----------------------|----------------------|
----------------------|----------------------|----------------------|
----------------------|----------------------|----------------------|
--2----2----2----5----|--L----5----5----L----|--5----5----5----9----|
--2----2----2----5----|--L----5----5----L----|--5----5----5----9----|
--0----0----0----3----|--L----3----3----L----|--3----3----3----7----|


  Q    Q    Q    Q       Q    Q    Q     Q       Q     Q     Q    Q     
----------------------|-----------------------|------------------------|
----------------------|-----------------------|------------------------|
----------------------|-----------------------|------------------------|
--L----9----9----L----|--9----9----9----12----|--L----12----12----L----|
--L----9----9----L----|--9----9----9----12----|--L----12----12----L----|
--L----7----7----L----|--7----7----7----10----|--L----10----10----L----|


   Q     Q     Q    Q       Q    Q    Q    Q       Q    Q    Q    Q     
-------------------------|----------------------|----------------------|
-------------------------|----------------------|----------------------|
-------------------------|----------------------|----------------------|
--12----12----12----7----|--L----7----7----L----|--7----7----7----2----|
--12----12----12----7----|--L----7----7----L----|--7----7----7----2----|
--10----10----10----5----|--L----5----5----L----|--5----5----5----0----|


  Q    Q    Q    Q       Q    Q    Q    Q       Q    Q    Q    Q     
----------------------|----------------------|----------------------|
----------------------|----------------------|----------------------|
----------------------|----------------------|----------------------|
--L----2----2----L----|--2----2----2----5----|--L----5----5----L----|
--L----2----2----L----|--2----2----2----5----|--L----5----5----L----|
--L----0----0----L----|--0----0----0----3----|--L----3----3----L----|


  Q    Q    Q    Q       Q    Q    Q    Q       Q    Q    Q    Q     
----------------------|----------------------|----------------------|
----------------------|----------------------|----------------------|
----------------------|----------------------|----------------------|
--5----5----5----4----|-------4----4---------|--4----4----4----2----|
--5----5----5----4----|-------4----4---------|--4----4----4----2----|
--3----3----3----2----|-------2----2---------|--2----2----2----0----|


  Q    Q    Q    Q       Q    Q    Q    Q       Q    Q    Q    Q     
----------------------|----------------------|----------------------|
----------------------|----------------------|----------------------|
----------------------|----------------------|----------------------|
--L----2----2----L----|--2----2----2----5----|--L----5----5----L----|
--L----2----2----L----|--2----2----2----5----|--L----5----5----L----|
--L----0----0----L----|--0----0----0----3----|--L----3----3----L----|


  Q    Q    Q    Q       Q    Q    Q    Q       Q    Q    Q     Q     
----------------------|----------------------|-----------------------|
----------------------|----------------------|-----------------------|
----------------------|----------------------|-----------------------|
--5----5----5----9----|--L----9----9----L----|--9----9----9----12----|
--5----5----5----9----|--L----9----9----L----|--9----9----9----12----|
--3----3----3----7----|--L----7----7----L----|--7----7----7----10----|


  Q     Q     Q    Q        Q     Q     Q    Q       Q    Q    Q    Q     
------------------------|-------------------------|----------------------|
------------------------|-------------------------|----------------------|
------------------------|-------------------------|----------------------|
--L----12----12----L----|--12----12----12----7----|--L----7----7----L----|
--L----12----12----L----|--12----12----12----7----|--L----7----7----L----|
--L----10----10----L----|--10----10----10----5----|--L----5----5----L----|


  Q    Q    Q    Q       Q    Q    Q    Q       Q    Q    Q    Q     
----------------------|----------------------|----------------------|
----------------------|----------------------|----------------------|
----------------------|----------------------|----------------------|
--7----7----7----2----|--L----2----2----L----|--2----2----2----5----|
--7----7----7----2----|--L----2----2----L----|--2----2----2----5----|
--5----5----5----0----|--L----0----0----L----|--0----0----0----3----|


  Q    Q    Q    Q       Q    Q    Q    Q       Q    Q    Q    Q     
----------------------|----------------------|----------------------|
----------------------|----------------------|----------------------|
----------------------|----------------------|----------------------|
--L----5----5----L----|--5----5----5----4----|-------4----4---------|
--L----5----5----L----|--5----5----5----4----|-------4----4---------|
--L----3----3----L----|--3----3----3----2----|-------2----2---------|


  Q    Q    Q    Q       Q    Q    Q    Q       Q    Q    Q    Q     
----------------------|----------------------|----------------------|
----------------------|----------------------|----------------------|
----------------------|----------------------|----------------------|
--4----4----4----2----|--L----2----2----L----|--2----2----2----5----|
--4----4----4----2----|--L----2----2----L----|--2----2----2----5----|
--2----2----2----0----|--L----0----0----L----|--0----0----0----3----|


  Q    Q    Q    Q       Q    Q    Q    Q       Q    Q    Q    Q     
----------------------|----------------------|----------------------|
----------------------|----------------------|----------------------|
----------------------|----------------------|----------------------|
--L----5----5----L----|--5----5----5----9----|--L----9----9----L----|
--L----5----5----L----|--5----5----5----9----|--L----9----9----L----|
--L----3----3----L----|--3----3----3----7----|--L----7----7----L----|


  Q    Q    Q     Q       Q     Q     Q    Q        Q     Q     Q    Q     
-----------------------|------------------------|-------------------------|
-----------------------|------------------------|-------------------------|
-----------------------|------------------------|-------------------------|
--9----9----9----12----|--L----12----12----L----|--12----12----12----7----|
--9----9----9----12----|--L----12----12----L----|--12----12----12----7----|
--7----7----7----10----|--L----10----10----L----|--10----10----10----5----|


  Q    Q    Q    Q       Q    Q    Q    Q       Q     Q     Q    Q     
----------------------|----------------------|------------------------|
----------------------|----------------------|------------------------|
----------------------|----------------------|------------------------|
--L----7----7----L----|--7----7----7----2----|--L----10----10----L----|
--L----7----7----L----|--7----7----7----2----|--L----10----10----L----|
--L----5----5----L----|--5----5----5----8----|--L-----8-----8----L----|


   Q     Q     Q    Q       Q    Q    Q    Q       Q    Q    Q    Q     
-------------------------|----------------------|----------------------|
-------------------------|----------------------|----------------------|
-------------------------|----------------------|----------------------|
--10----10----10----5----|--L----5----5----L----|--5----5----5----4----|
--10----10----10----5----|--L----5----5----L----|--5----5----5----4----|
---8-----8-----8----3----|--L----3----3----L----|--3----3----3----2----|


  Q    Q    Q    Q       Q    Q    Q    Q       Q    Q    Q    Q     
----------------------|----------------------|----------------------|
----------------------|----------------------|----------------------|
----------------------|----------------------|----------------------|
-------4----4---------|--4----4----4----2----|--L----2----2----L----|
-------4----4---------|--4----4----4----2----|--L----2----2----L----|
-------2----2---------|--2----2----2----0----|--L----0----0----L----|


  Q    Q    Q    Q       Q    Q    Q    Q       Q    Q    Q    Q     
----------------------|----------------------|----------------------|
----------------------|----------------------|----------------------|
----------------------|----------------------|----------------------|
--2----2----2----5----|--L----5----5----L----|--5----5----5----9----|
--2----2----2----5----|--L----5----5----L----|--5----5----5----9----|
--0----0----0----3----|--L----3----3----L----|--3----3----3----7----|


  Q    Q    Q    Q       Q    Q    Q     Q       Q     Q     Q    Q     
----------------------|-----------------------|------------------------|
----------------------|-----------------------|------------------------|
----------------------|-----------------------|------------------------|
--L----9----9----L----|--9----9----9----12----|--L----12----12----L----|
--L----9----9----L----|--9----9----9----12----|--L----12----12----L----|
--L----7----7----L----|--7----7----7----10----|--L----10----10----L----|


   Q     Q     Q    Q       Q    Q    Q    Q       Q    Q    Q    Q     
-------------------------|----------------------|----------------------|
-------------------------|----------------------|----------------------|
-------------------------|----------------------|----------------------|
--12----12----12----7----|--L----7----7----L----|--7----7----7----2----|
--12----12----12----7----|--L----7----7----L----|--7----7----7----2----|
--10----10----10----5----|--L----5----5----L----|--5----5----5----0----|


  Q    Q    Q    Q       Q    Q    Q    Q       Q    Q    Q    Q     
----------------------|----------------------|----------------------|
----------------------|----------------------|----------------------|
----------------------|----------------------|----------------------|
--L----2----2----L----|--2----2----2----5----|--L----5----5----L----|
--L----2----2----L----|--2----2----2----5----|--L----5----5----L----|
--L----0----0----L----|--0----0----0----3----|--L----3----3----L----|


  Q    Q    Q    Q       Q    Q    Q    Q       Q    Q    Q    Q     
----------------------|----------------------|----------------------|
----------------------|----------------------|----------------------|
----------------------|----------------------|----------------------|
--5----5----5----4----|-------4----4---------|--4----4----4----2----|
--5----5----5----4----|-------4----4---------|--4----4----4----2----|
--3----3----3----2----|-------2----2---------|--2----2----2----0----|


Duration Legend
---------------
W - whole
H - half
Q - quarter
E - 8th
S - 16th
T - 32nd
X - 64th
. - note dotted
|-n-|  - n-tuplets


Tablature Legend
----------------
L - tied note
x - dead note
g - grace note
(n) - ghost note
> - accentuded note
NH - natural harmonic
AH - artificial harmonic
TH - tapped harmonic
SH - semi harmonic
PH - pitch harmonic
h - hammer on
p - pull off
b - bend
br - bendRelease
pb - preBend
pbr - preBendRelease
brb - bendReleaseBend
\n/ - tremolo bar dip
\n - tremolo bar dive
-/n - tremolo bar Release up
/n\ - tremolo bar inverted dip
/n - tremolo bar return
-\n - tremolo bar Release down
S - shift slide
s - legato slide
/ -  slide into from below or out of upwards
\ -  slide into from above or out of downwards
~ - vibrato
W - wide vibrato
tr - trill
TP - tremolo picking
T - tapping
S - slap
P - pop
< - fade in
^ - brush up
v - brush down





Comments


Popular Caramelos De Cianuro tabs & chords
2 Caras 2 Corazones Chords
La Casa Chords
El Martillo Tabs
Imaginar Tabs
La Llama Tabs
Pepsi-Pepsi Tabs
Veronica 2 Tabs
2 Caras 2 Corazones Ukulele
El Ultimo Polvo Ukulele
La Terraza Ukulele


Song lyrics



↑ Back to top | Tablatures and chords are parodies/interpretations of the original songs. You may use it for private study, scholarship, research or language learning purposes only
© 2014 AZChords.com Contact us | Privacy policy | DMCA | Add/correct tabs | Request tabs | Top 50 tabs