» » »

Capital Lights, Out Of Control Bass tabs (ver.1)

Artists:  A B C D E F G H I J K L M N O P Q R S T U V W X Y Z # 

Out Of Control Bass tabs (ver.1)

Capital Lights Tabs
Rating:
3/5 (1 vote)
Out Of Control lessons Tabs too difficult? Try these video lessons and learn fast
                -----------------------------------------------------------------------------
		      Capital Lights - Out of Control
-----------------------------------------------------------------------------

Tuning: Standard

Intro
G|--------------------------------------|
D|--------------------------------------| x2
A|-----------33--33-3-------------------|
E|--55--55-5----------1111111133333333--|

~Guitar Break~

Verse
G|-----------------------------------|
D|-----------------------------------| x2
A|-----------------------------------|
E|-5--55--55--5-5-51--11--11--1-1-1--|

G|------------------------------------|
D|------------------------------------|
A|------------------3333333333333333--|
E|--5555555555555555------------------|

Chorus
G|-----------------------------------|
D|-----------------------------------| x2
A|--33333333-------------------------|
E|----------11111111555555533333333--|

G|----------------------------------|
D|----------------------------------|
A|--3-3-----------------------------|
E|---------3-3-----5-5-----1-1-1-1--|

G|-----------------------------------------------------------|
D|-----------------------------------------------------------|
A|--3333333333333333-----------------------------------------|
E|------------------333333333333333111111111111111133333333--|

G|-------------------------------|
D|-------------------------------|
A|-----------33--33-3------------|
E|--55--55-5----------111111115--|

~Short Break~

Verse
G|-----------------------------------|
D|-----------------------------------| x2
A|-----------------------------------|
E|-5--55--55--5-5-51--11--11--1-1-1--|

G|------------|
D|------------|
A|------------|
E|--11111111--|

Chorus
G|-----------------------------------|
D|-----------------------------------| x2
A|--33333333-------------------------|
E|----------11111111555555533333333--|

G|----------------------------------|
D|----------------------------------|
A|--3-3-----------------------------|
E|---------3-3-----5-5-----1-1-1-1--|

G|-----------------------------------------------------------|
D|-----------------------------------------------------------|
A|--3333333333333333-----------------------------------------|
E|------------------333333333333333111111111111111133333333--|

Bridge
G|-----------------------------------------------------------|
D|-----------------------------------------------------------| x2
A|--3333333333333333333333333333333333333333333333333333333--|
E|-----------------------------------------------------------|

G|-----------------------------------------------------|
D|-----------------------------------------------------|
A|--3333333333333333-7 (x16)3333333333333333-10 (x16)--|
E|-----------------------------------------------------|

G|--------------------|
D|--------------------|
A|----------33333333--|
E|--11111111----------|

Chorus
G|-----------------------------------|
D|-----------------------------------| x4
A|--33333333-------------------------|
E|----------11111111555555533333333--|

G|----------------------------------|
D|----------------------------------|
A|--3-3-----------------------------|
E|---------3-3-----5-5-----1-1-1-1--|

G|-------------------------------------------------------------------|
D|-------------------------------------------------------------------| x2
A|--3333333333333333-------------------------------------------------|
E|------------------33333333333333311111111111111113333333333333333--|

| /  slide up
| \  slide down
| h  hammer-on
| p  pull-off
| ~  let note ring
| +  harmonic
| x  Mute note
=============================================================================
            

comments powered by Disqus
↑ Back to top | Capital Lights Bass for Out Of Control. Lyrics for acoustic guitar and electric guitar. Tablatures and chords are parodies/interpretations of the original songs. You may use it for private study, scholarship, research or language learning purposes only